PrimaNota.ru - самый крупный в мире бесплатный архив песенных текстов, аккордов, табулатур и нот


Ghinzu - Cold Love - аккорды и текст, видео

Регистрация Запомнить меня
Войти через:  Facebook Google Twitter Vk Yandex Mail.ru

Ghinzu - Cold Love - аккорды и текст, видео

Печатать
Просмотров: 149
Cold Love
Ghinzu
Song: Cold Love
Band: Ghinzu
Album: Mirror Mirror
Year: 2009
Tabber: beranger80@hotmail.com



Intro (0:04)

D#  G  Cm  D#  G  Cm



Bass riff (0:23)

g----------|----------|
d----------|----3-----|
a--6-3--6--|--6----3--|
e----------|----------|
         x3



Riff A (0:33)

e---------------------------------------|-----------------------------------|
b---------------------------------------|-----------------------------------|
g--5-5-5-5-5-5-5-5-8-8-8-8-10-10-10-10--|--5-5-5-5-5-5-5-5-8-8-8-8-7-7-7-7--|
d--5-5-5-5-5-5-5-5-8-8-8-8-10-10-10-10--|--5-5-5-5-5-5-5-5-8-8-8-8-7-7-7-7--|
a--3-3-3-3-3-3-3-3-6-6-6-6--8--8--8--8--|--3-3-3-3-3-3-3-3-6-6-6-6-5-5-5-5--|
e---------------------------------------|-----------------------------------|



Riff B (0:42)

e-------------------|-------------------|
b-------------------|-------------------|
g-------------------|-------------------|
d----6---5---3---5--|----6---5---3-2----|
a--3---3---3---3----|--3---3---3-----3--|
e-------------------|-------------------|



Verse (0:52)

e-----------|
b--x-x-x-x--|
g--x-x-x-x--|
d--x-x-x-x--|
a--x-x-x-x--|
e-----------|



Riff C (1:01)

e-------------------|-------------------|
b--9-9-8-8-6-6-8-8--|--9-9-8-8-6-6-1-1--|
g-------------------|-------------------|
d-------------------|-------------------|
a-------------------|-------------------|
e-------------------|-------------------|



Prechorus (1:11)

G#  Fm  Cm  D#



Chorus (1:30)
 
e------------------|-----------------|-----------------|------------------|
b------------------|-----------------|-4-4-4-4-4-4-4-4-|-8-8-8-8-8-8-8-8--|
g--5-5-5-5-5-5-5-5-|-1-1-1-1-1-1-1-1-|-5-5-5-5-5-5-5-5-|-8-8-8-8-8-8-8-8--|
d--6-6-6-6-6-6-6-6-|-3-3-3-3-3-3-3-3-|-5-5-5-5-5-5-5-5-|-8-8-8-8-8-8-8-8--|
a--6-6-6-6-6-6-6-6-|-3-3-3-3-3-3-3-3-|-3-3-3-3-3-3-3-3-|-6-6-6-6-6-6-6-6--|
e--4-4-4-4-4-4-4-4-|-1-1-1-1-1-1-1-1-|-----------------|------------------|



1:49 Riff A + Riff B

1:59 Verse

2:09 Riff B + Riff C

2:18 Prechorus

2:38 Chorus



Bridge (3:12)

Cm  G  Eb  Fm  Cm  G#  Cm  Fm  Bb G  

Cm  G  Eb  Fm  Cm  G#  Cm  Fm  Bb G



Outro (3:55)

Riff B + Riff C
Добавлено: 14.08.2015
Другие материалы по этой песне:
  • Аккорды и текст

Страница создана 14.08.2015
http://primanota.ru/ghinzu/cold-love-chords.htm
Привет, Гость.
Предлагаем пройти революционный курс по гитаре.
Подарок от PrimaNota.Ru, забирай!