PrimaNota.ru - самый крупный в мире бесплатный архив песенных текстов, аккордов, табулатур и нот


Ghinzu - 21st Century Crooners - таба, видео

Регистрация Запомнить меня
Войти через:  Facebook Google Twitter Vk Yandex Mail.ru

Ghinzu - 21st Century Crooners - таба, видео

Печатать
Просмотров: 206
        21st Century Crooners


                                  Ghinzu


Guitar I (left hand)


     S S S S S S S S S S S S S S S S
E||----------------------------------|
B||----------------------------------|
G||--------------0---2---0-----------|
D||------2---3---------------3---2---|
A||----5---5---5---5---5---5---5---5-|
E||--5-------------------------------|


  S S S S S S S S S S S S S S S S
----------------------------------|
----------------------------------|
--------------0---2---0-----------|
------2---3---------------3---2---|
----5---5---5---5---5---5---5---5-|
--5-------------------------------|


  S S S S S S S S S S S S S S S S
----------------------------------|
----------------------------------|
--------------0---2---0-----------|
------2---3---------------3---2---|
----4---4---4---4---4---4---4---4-|
--5-------------------------------|


  S S S S S S S S S S S S S S S S
----------------------------------|
----------------------------------|
--------------0---2---0-----------|
------2---3---------------3---2---|
----4---4---4---4---4---4---4---4-|
--5-------------------------------|


  S S S S S S S S S S S S S S S S
----------------------------------|
----------------------------------|
--------------0---2---0-----------|
------2---3---------------3---2---|
----5---5---5---5---5---5---5---5-|
--5-------------------------------|


  S S S S S S S S S S S S S S S S
----------------------------------|
----------------------------------|
--------------0---2---0-----------|
------2---3---------------3---2---|
----5---5---5---5---5---5---5---5-|
--5-------------------------------|


  S S S S S S S S S S S S S S S S
----------------------------------|
----------------------------------|
--------------0---2---0-----------|
------2---3---------------3---2---|
----4---4---4---4---4---4---4---4-|
--5-------------------------------|


  S S S S S S S S S S S S S S S S
----------------------------------|
----------------------------------|
--------------0---2---0-----------|
------2---3---------------3---2---|
----4---4---4---4---4---4---4---4-|
--5-------------------------------|


  S S S S S S S S S S S S S S S S
----------------------------------|
----------------------------------|
--------------0---2---0-----------|
------2---3---------------3---2---|
----5---5---5---5---5---5---5---5-|
--5-------------------------------|


Guitar II (right hand)

  S  S  S  S  S  S S  S  S  S S  S  S  S
-----------------------------------------|
----10----10----10---10----10---10----10-|
-------12----10----9----------9----10----|
------------------------12---------------|
-----------------------------------------|
-----------------------------------------|


Guitar I

  S S S S S S S S S S S S S S S S
----------------------------------|
----------------------------------|
--------------0---2---0-----------|
------2---3---------------3---2---|
----5---5---5---5---5---5---5---5-|
--5-------------------------------|


Guitar II

  S  S  S  S  S  S S  S  S  S S  S  S  S
-----------------------------------------|
----10----10----10---10----10---10----10-|
-------12----10----9----------9----10----|
------------------------12---------------|
-----------------------------------------|
-----------------------------------------|


Guitar I

  S S S S S S S S S S S S S S S S
----------------------------------|
----------------------------------|
--------------0---2---0-----------|
------2---3---------------3---2---|
----4---4---4---4---4---4---4---4-|
--5-------------------------------|


Guitar II

  S  S  S  S  S  S S  S  S  S S  S  S  S
-----------------------------------------|
----11----11----11---11----11---11----11-|
-------12----10----9----------9----10----|
------------------------12---------------|
-----------------------------------------|
-----------------------------------------|


Guitar I

  S S S S S S S S S S S S S S S S
----------------------------------|
----------------------------------|
--------------0---2---0-----------|
------2---3---------------3---2---|
----4---4---4---4---4---4---4---4-|
--5-------------------------------|


Guitar II

  S  S  S  S  S  S S  S  S  S S  S  S  S
-----------------------------------------|
----11----11----11---11----11---11----11-|
-------12----10----9----------9----10----|
------------------------12---------------|
-----------------------------------------|
-----------------------------------------|


GUitar I

  S S S S S S S S S S S S S S S S
----------------------------------|
----------------------------------|
--------------0---2---0-----------|
------2---3---------------3---2---|
----5---5---5---5---5---5---5---5-|
--5-------------------------------|


Guitar II

  S  S  S  S  S  S S  S  S  S S  S  S  S
-----------------------------------------|
----10----10----10---10----10---10----10-|
-------12----10----9----------9----10----|
------------------------12---------------|
-----------------------------------------|
-----------------------------------------|


Guitar I

  S S S S S S S S S S S S S S S S
----------------------------------|
----------------------------------|
--------------0---2---0-----------|
------2---3---------------3---2---|
----5---5---5---5---5---5---5---5-|
--5-------------------------------|


Guitar II

  S  S  S  S  S  S S  S  S  S S  S  S  S
-----------------------------------------|
----10----10----10---10----10---10----10-|
-------12----10----9----------9----10----|
------------------------12---------------|
-----------------------------------------|
-----------------------------------------|


Guitar I

  S S S S S S S S S S S S S S S S
----------------------------------|
----------------------------------|
--------------0---2---0-----------|
------2---3---------------3---2---|
----4---4---4---4---4---4---4---4-|
--5-------------------------------|


Guitar II

  S  S  S  S  S  S S  S  S  S S  S  S  S
-----------------------------------------|
----11----11----11---11----11---11----11-|
-------12----10----9----------9----10----|
------------------------12---------------|
-----------------------------------------|
-----------------------------------------|


Guitar I

  S S S S S S S S S S S S S S S S
----------------------------------|
----------------------------------|
--------------0---2---0-----------|
------2---3---------------3---2---|
----4---4---4---4---4---4---4---4-|
--5-------------------------------|


Guitar II

  S  S  S  S  S  S S  S  S  S S  S  S  S
-----------------------------------------|
----11----11----11---11----11---11----11-|
-------12----10----9----------9----10----|
------------------------12---------------|
-----------------------------------------|
-----------------------------------------|


Guitar I

  S S S S S S S S S S S S S S S S
----------------------------------|
----------------------------------|
--------------0---2---0-----------|
------2---3---------------3---2---|
----5---5---5---5---5---5---5---5-|
--5-------------------------------|


Guitar II

----|----|----|----|
----|----|----|----|
----|----|----|----|
----|----|----|----|
----|----|----|----|
----|----|----|----|


Guitar I

  S S S S S S S S S S S S S S S S
----------------------------------|
----------------------------------|
--------------0---2---0-----------|
------2---3---------------3---2---|
----5---5---5---5---5---5---5---5-|
--5-------------------------------|


GUitar II

  S  S S  S S  S S S S  S S  S S  S S S
----------------------------------------|
----10----------------------------------|
---------12---10---9--------------------|
-----------------------12---11---12-----|
----------------------------------------|
----------------------------------------|


Guitar I

  S S S S S S S S S S S S S S S S
----------------------------------|
----------------------------------|
--------------0---2---0-----------|
------2---3---------------3---2---|
----4---4---4---4---4---4---4---4-|
--5-------------------------------|


Guitar II

  S  S S  S S  S S S S  S S  S S  S S S
----------------------------------------|
----10----------------------------------|
---------12---10---9--------------------|
-----------------------12---11---12-----|
----------------------------------------|
----------------------------------------|


Guitar I

  S S S S S S S S S S S S S S S S
----------------------------------|
----------------------------------|
--------------0---2---0-----------|
------2---3---------------3---2---|
----4---4---4---4---4---4---4---4-|
--5-------------------------------|


Guitar II

  S  S S  S S  S S S S  S S  S S  S S S
----------------------------------------|
----10----------------------------------|
---------12---10---9--------------------|
-----------------------12---11---12-----|
----------------------------------------|
----------------------------------------|


Guitar I

  S S S S S S S S S S S S S S S S
----------------------------------|
----------------------------------|
--------------0---2---0-----------|
------2---3---------------3---2---|
----5---5---5---5---5---5---5---5-|
--5-------------------------------|


Guitar II

  S  S S  S S  S S  S S  S S  S S  S S S
----------------------------------------|
----10--------10---11---10--------------|
---------12------------------12---10----|
----------------------------------------|
----------------------------------------|
----------------------------------------|


Guitar I

  S S S S S S S S S S S S S S S S
----------------------------------|
----------------------------------|
--------------0---2---0-----------|
------2---3---------------3---2---|
----5---5---5---5---5---5---5---5-|
--5-------------------------------|


Guitar II

  S  S S  S S  S S S S  S S  S S  S S S
----------------------------------------|
----10----------------------------------|
---------12---10---9--------------------|
-----------------------12---11---12-----|
----------------------------------------|
----------------------------------------|


Guitar I

  S S S S S S S S S S S S S S S S
----------------------------------|
----------------------------------|
--------------0---2---0-----------|
------2---3---------------3---2---|
----4---4---4---4---4---4---4---4-|
--5-------------------------------|


Guitar II

  S  S S  S S  S S S S  S S  S S  S S S
----------------------------------------|
----10----------------------------------|
---------12---10---9--------------------|
-----------------------12---11---12-----|
----------------------------------------|
----------------------------------------|


Guitar I

  S S S S S S S S S S S S S S S S
----------------------------------|
----------------------------------|
--------------0---2---0-----------|
------2---3---------------3---2---|
----4---4---4---4---4---4---4---4-|
--5-------------------------------|


Guitar II

  S  S S  S S  S S S S  S S  S S  S S S
----------------------------------------|
----10----------------------------------|
---------12---10---9--------------------|
-----------------------12---11---12-----|
----------------------------------------|
----------------------------------------|


Guitar I

  S S S S S S S S S S S S S S S S
----------------------------------|
----------------------------------|
--------------0---2---0-----------|
------2---3---------------3---2---|
----5---5---5---5---5---5---5---5-|
--5-------------------------------|


Guitar II

  S  S S  S S  S S S S  S S  S S  S S S
----------------------------------------|
----10----------------------------------|
---------12---10---9--------------------|
-----------------------12---11---12-----|
----------------------------------------|
----------------------------------------|


Guitar I

  S S S S S S S S S S S S S S S S
----------------------------------|
----------------------------------|
--------------0---2---0-----------|
------2---3---------------3---2---|
----5---5---5---5---5---5---5---5-|
--5-------------------------------|


Guitar II

   S  S  S  S  S  S  S  S  S  S  S  S  S
-----------------------------------------|
-----------------------------------------|
--------------------10-10----------------|
--12-12-11-11-12-12-------12-12-11-11-12-|
-----------------------------------------|
-----------------------------------------|


Guitar I

  S S S S S S S S S S S S S S S S
----------------------------------|
----------------------------------|
--------------0---2---0-----------|
------2---3---------------3---2---|
----4---4---4---4---4---4---4---4-|
--5-------------------------------|


Guitar II

   S  S  S  S  S  S  S  S  S  S  S  S  S
-----------------------------------------|
-----------------------------------------|
--------------------10-10----------------|
--12-12-11-11-12-12-------12-12-11-11-12-|
-----------------------------------------|
-----------------------------------------|


Guitar I

  S S S S S S S S S S S S S S S S
----------------------------------|
----------------------------------|
--------------0---2---0-----------|
------2---3---------------3---2---|
----4---4---4---4---4---4---4---4-|
--5-------------------------------|


Guitar II

   S  S  S  S  S  S  S  S  S  S  S  S  S
-----------------------------------------|
-----------------------------------------|
--------------------10-10----------------|
--12-12-11-11-12-12-------12-12-11-11-12-|
-----------------------------------------|
-----------------------------------------|


Guitar I

  S S S S S S S S S S S S S S S S
----------------------------------|
----------------------------------|
--------------0---2---0-----------|
------2---3---------------3---2---|
----5---5---5---5---5---5---5---5-|
--5-------------------------------|


Guitar II

   S  S  S  S  S  S  S  S  S  S  S  S  S
-----------------------------------------|
-----------------------------------------|
--------------------10-10----------------|
--10-10-------10-10-------10-10-------10-|
--------12-12-------------------12-12----|
-----------------------------------------|


Guitar I

  S S S S S S S S S S S S S S S S
----------------------------------|
----------------------------------|
--------------0---2---0-----------|
------2---3---------------3---2---|
----5---5---5---5---5---5---5---5-|
--5-------------------------------|


Guitar II

  S S S S S  S   S   S   S   S   S   S
-----------------------------------------|
-----------------------------------------|
--9-9-9-9-9b-9pb-9pb-9pb-9pb-9pb-9pb-9pb-|
-----------------------------------------|
-----------------------------------------|
-----------------------------------------|


Guitar I

  S S S S S S S S S S S S S S S S
----------------------------------|
----------------------------------|
--------------0---2---0-----------|
------2---3---------------3---2---|
----4---4---4---4---4---4---4---4-|
--5-------------------------------|


Guitar II

   S      S   S   S   S   S   S   S   S
-----------------------------------------|
-----------------------------------------|
-----------------------------------------|(9)pbr-(9)-(9)-(9)-(9)-(9)-(9)-(9)-(9)
-----------------------------------------|
-----------------------------------------|
-----------------------------------------|


Guitar I

  S S S S S S S S S S S S S S S S
----------------------------------|----|
----------------------------------|----|
--------------0---2---0-----------|----|
------2---3---------------3---2---|----|
----4---4---4---4---4---4---4---4-|----|
--5-------------------------------|----|


----|----||
----|----||
----|----||
----|----||
----|----||
----|----||


Duration Legend
---------------
W - whole
H - half
Q - quarter
E - 8th
S - 16th
T - 32nd
X - 64th
. - note dotted
|-n-|  - n-tuplets


Tablature Legend
----------------
L - tied note
x - dead note
g - grace note
(n) - ghost note
> - accentuded note
NH - natural harmonic
AH - artificial harmonic
TH - tapped harmonic
SH - semi harmonic
PH - pitch harmonic
h - hammer on
p - pull off
b - bend
br - bendRelease
pb - preBend
pbr - preBendRelease
brb - bendReleaseBend
\n/ - tremolo bar dip
\n - tremolo bar dive
-/n - tremolo bar Release up
/n\ - tremolo bar inverted dip
/n - tremolo bar return
-\n - tremolo bar Release down
S - shift slide
s - legato slide
/ -  slide into from below or out of upwards
\ -  slide into from above or out of downwards
~ - vibrato
W - wide vibrato
tr - trill
TP - tremolo picking
T - tapping
S - slap
P - pop
< - fade in
^ - brush up
v - brush down
Добавлено: 27.04.2012
Другие материалы по этой песне:

Страница создана 27.04.2012
http://primanota.ru/ghinzu/21st-century-crooners-chords.htm
Привет, Гость.
Предлагаем пройти революционный курс по гитаре.
Подарок от PrimaNota.Ru, забирай!