PrimaNota.ru - самый крупный в мире бесплатный архив песенных текстов, аккордов, табулатур и нот


Gg Allin - Rape Torture Terminate And Fuck - таба, бас-таба, видео

Регистрация Запомнить меня
Войти через:  Facebook Google Twitter Vk Yandex Mail.ru

Gg Allin - Rape Torture Terminate And Fuck - таба, бас-таба, видео

Печатать
Просмотров: 91
Rape, Torture, Terminate And Fuck
GG Allin with ANTiSEEN
Album: Murder Junkies
Tuning: Standard

d=downstroke
u=upstroke

4x:
   A5      D5       C5   G5
E|---------------------------------|
B|---------------------------------|
G|---------7---7-7--5--5-----------|
D|-7---7-7-7---7-7--5--5-5---5-5-5-|
A|-7---7-7-5---5-5--3--3-5---5-5-5-|
E|-5---5-5---------------3---3-3-3-|
   d   d u d   d u  d  d u   u d u
  "Rape,   Torture, Kill & Fuck"

   A5                                C5
E|-----------------|---------------------------------|
B|-----------------|---------------------------------|
G|-----------------|-----------------5-5-5-5-5-5-5-5-|
D|-7---7~--7---7~--|-7-7-7-7-7-7-7-7-5-5-5-5-5-5-5-5-|
A|-7---7~--7---7~--|-7-7-7-7-7-7-7-7-3-3-3-3-3-3-3-3-|
E|-5---5~--5---5~--|-5-5-5-5-5-5-5-5-----------------|
   d   d   d   d     d u d u d u d u d u d u d u d u
       "Raaape,  Torture,            Kill  &  Fuck"



spunk87@freenet.de
steffenwoehler87@gmail.com
Добавлено: 03.09.2014
Другие материалы по этой песне:
  • Аккорды и текст

Страница создана 03.09.2014
http://primanota.ru/gg-allin/rape-torture-terminate-and-fuck-chords.htm
Привет, Гость.
Предлагаем пройти революционный курс по гитаре.
Подарок от PrimaNota.Ru, забирай!