PrimaNota.ru - самый крупный в мире бесплатный архив песенных текстов, аккордов, табулатур и нот


Gg Allin - Im A Fuckup - таба, видео

Регистрация Запомнить меня
Войти через:  Facebook Google Twitter Vk Yandex Mail.ru

Gg Allin - Im A Fuckup - таба, видео

Печатать
Просмотров: 164
Tabbed by: Mericoy

              1=11

Verse 1:
e|--------------------------------------------------------------------------|
B|--------------------------------------------------------------------------|
G|----111111--------111111--------------------------------------------------|
D|----111111-999999-111111-111111-------------------------------------------|
A|----999999-999999-999999-111111-------------------------------------------|
E|-----------777777--------999999-------------------------------------------|

Chorus:
e|--------------------------------------------------------------------------|
B|--------------------------------------------------------------------------|
G|-----------------------------111-----1------------------------------------|
D|----999999-111111------------111-111-1------------------------------------|
A|----999999-111111----(*3)----999-111-9------------------------------------|
E|----777777-999999----------------999--------------------------------------|

Verse 2:
e|--------------------------------------------------------------------------|
B|--------------------------------------------------------------------------|
G|----999999-10-111111-10-999999--------------------------------------------|
D|----999999-10-111111-10-999999-1212121212-111111--------------------------|
A|----777777--8-999999--8-777777-1212121212-111111-----(*2)-----------------|
E|-------------------------------1010101010-999999--------------------------|


Rep da shix o tree
Добавлено: 19.03.2012
Другие материалы по этой песне:
  • Аккорды и текст

Страница создана 19.03.2012
http://primanota.ru/gg-allin/im-a-fuckup-chords.htm
Привет, Гость.
Предлагаем пройти революционный курс по гитаре.
Подарок от PrimaNota.Ru, забирай!