PrimaNota.ru - самый крупный в мире бесплатный архив песенных текстов, аккордов, табулатур и нот


Gg Allin - Dead or alive - текст песни, таба, видео

Регистрация Запомнить меня
Войти через:  Facebook Google Twitter Vk Yandex Mail.ru

Gg Allin - Dead or alive - текст песни, таба, видео

Печатать
Просмотров: 214
Уроки эстрадного вокала в Санкт-Петербурге
I discovered it recently when i found yhis live on youtube ;)
This tab don't include solo

Intro:
E-------------------------------------------------------|
B-------------------------------------------------------|
G-------------------------------------------------------|
D-------------------------------------------------------|
A--7-7-7-7-7--9-9---------------------------------------|
E--5-5-5-5-5--7-7---------------------------------------|

Verse:
E-------------------------------------------------------------|
B-------------------------------------------------------------|
G-------------------------------------------------------------|
D--9-9-9-9-9-9-9-9--------------------------------------------|
A--7-7-7-7-7-7-7-7-9-9-9-7-7----------------------------------|
E------------------7-7-7-5-5----------------------------------|
Chorus:
E--------------------------------------------------------|
B--------------------------------------------------------|
G--------------------------------------------------------|
D--------------------------------------------------------|
A-9-9-9-9-7-7-7-7----------------------------------------|
E-7-7-7-7-5-5-5-5----------------------------------------|
Добавлено: 19.06.2015
Другие материалы по этой песне:
  • Аккорды и текст

Страница создана 25.02.2012
http://primanota.ru/gg-allin/dead-or-alive-chords.htm
Привет, Гость.
Предлагаем пройти революционный курс по гитаре.
Подарок от PrimaNota.Ru, забирай!