PrimaNota.ru - самый крупный в мире бесплатный архив песенных текстов, аккордов, табулатур и нот


Get Up Kids - Alec Eifel - таба, видео

Регистрация Запомнить меня
Войти через:  Facebook Google Twitter Vk Yandex Mail.ru

Get Up Kids - Alec Eifel - таба, видео

Печатать
Просмотров: 66
ALEC EIFEL - Get Up Kids

This is a great cover of the song by the Pixies. It is an old GUK song but it
was re-released on their new cd EUDORA.

by Ryan Johnson
Dysphoria00@hotmail.com

Drop D(DADGBE)

Intro ("Pioneer of aerodynamics..."):

guitar 1 (distortion on):
                         D5-G5------F5--C5                            D5-G5------F5--C5

------------------------------------------------------------------------------------------
------------------------------------------------------------------------------------------
---9b10---9b10---9b10-------------------5-5-----9b10---9b10---9b10-------------------5-5--
-------------------------0--5-5-5-5-3-3-5-5---------------------------0--5-5-5-5-3-3-5-5--
-7------7------7-------7-0--5-5-5-5-3-3-3-3---7------7------7-------7-0--5-5-5-5-3-3-3-3--
-------------------------0--5-5-5-5-3-3-------------------------------0--5-5-5-5-3-3------

guitar 2 (distortion on):
                            E5------Esus4                               E5-------Esus4

----------------------------------------------------------------------------------------
------------------------------------10-10----------------------------------------10-10--
----------------------------9-9-9-9--9--9--------------------------------9-9-9-9--9--9--
----------------------------9-9-9-9--9--9--------------------------------9-9-9-9--9--9--
----------------------------7-7-7-7--7--7--------------------------------7-7-7-7--7--7--
----------------------------------------------------------------------------------------

    then ("He thought big..."):

guitar 1:
                                                           D5-G5------F5--C5

-------------------------------------------------------------------------------
-------------------------------------------------------------------------------
---9b10-(9b)10---9b10-(9b)10---9b10-(9b)10-(9b)10-(9b)10------------------5-5--
-----------------------------------------------------------0--5-5-5-5-3-3-5-5--
-7-------------7-------------7-----------------------------0--5-5-5-5-3-3-3-3--
-----------------------------------------------------------0--5-5-5-5-3-3------

guitar 2:                                                      E5------Esus4

-------------------------------------------------------------------------------
------------------------------------------------------------------------10-10--
----------------------------------------------------------------9-9-9-9--9--9--
----------------------------------------------------------------9-9-9-9--9--9--
----------------------------------------------------------------7-7-7-7--7--7--
-------------------------------------------------------------------------------

    then ("They didn't know..."):

guitar 1:                                 D5-G5------F5--C5

-----------------------------------------------------------
-----------------------------------------------------------
-9-9-9-9-9-9-9-9-9-9-9-9-9-9b10-(9b)10----------------5-5--
------------------------------------------5-5-5-5-3-3-5-5--
-7-7-7-7-7-7-7-7-7-7-7-7-7-7--------7--0--5-5-5-5-3-3-3-3--
---------------------------------------0--5-5-5-5-3-3------

guitar 2:                                   E5------Esus4

---------------------------------------------------------
--10-10-10-10-10-10-10b10.5-----------------------10-10--
----------------------*-------------------9-9-9-9--9--9--
------------------------------------------9-9-9-9--9--9--
------------------------------------------7-7-7-7--7--7--
---------------------------------------------------------
*this bend is a quarter-step bend 

First Verse ("Little Eiffel stands..."):

both guitars:
B5---D5--G5--E5--D5

----------------------
----------------------
----------------------
-4-4-7-7--------------
-2-2-5-5-5-5-2-2-0-0--
---------5-5-2-2-0-0--

    then (bar of 2/4; "...make no..."):

both guitars:
A5
----
----
----
----
-7--
-7--

    then (bar of 6/4; "...sense."):

guitars 1 & 2:
E5-----------------------------------------G5

------------------------------------------------------------
------------------------------------------------------------
------------------------------------------------------------
-9-9-9-9-9-9-9-9-9-9-9-9-9-9-9-9-9-9-9-9-9------------------
-7-7-7-7-7-7-7-7-7-7-7-7-7-7-7-7-7-7-7-7-7-5-5-5-5-5-5-5-5--
-------------------------------------------5-5-5-5-5-5-5-5--

guitar 3 (distortion on):
-------------------------------------------------------------
-------------------------------------------------------------
-2/3-3-3-3/4-4-4-4/5-5/6-6/7-7/8-8/9-9/10-10/11-11/12-15-12--
-------------------------------------------------------------
-------------------------------------------------------------
-------------------------------------------------------------

    then:

guitars 1 & 2:
F5-----------C5----E5------------------------------G5--------------------F5----------C5

------------------------------------------------------------------------------------------
------------------------------------------------------------------------------------------
-------------5-5-5-------------------------------------------------------------------5-5--
-------------5-5-5-9-9-9-9-9-9-9-9-9-9-9-9-9-9-9-------------------------------------5-5--
-3-3-3-3-3-3-3-3-3-7-7-7-7-7-7-7-7-7-7-7-7-7-7-7---5-5-5-5-5-5-5-5-5-5-5-3-3-3-3-3-3-3-3--
-3-3-3-3-3-3---------------------------------------5-5-5-5-5-5-5-5-5-5-5-3-3-3-3-3-3------

guitar 3:
---------------------------------------------------14b15-14-12-14b15-12-14b15r14-12-14b15--
-------------------------------------------------------------------------------------------
-14b15r14p12-14-12-14b15r14p12-14-12-15-14-12-14-------------------------------------------
-------------------------------------------------------------------------------------------
-------------------------------------------------------------------------------------------
-------------------------------------------------------------------------------------------

     then ("Sometimes people can be..."):

guitar 1:
E5------------------------G5------F5---C5

----------------------------------------------
----------------------------------------------
----------------------------------------------
-9--9--9--9--9--9--9--9---5-5-5-5-3-3-/10-10--
-7--7--7--7--7--7--7--7---5-5-5-5-3-3-/10-10--
--------------------------5-5-5-5-3-3-/10-10--

guitar 2:
----------------------------------------------
----------------------------------------------
-9--9--9--9--9--9--9--9-----------------------
-9--9--9--9--9--9--9--9---5-5-5-5-3-3-/10-10--
-7--7--7--7--7--7--7--7---5-5-5-5-3-3-/10-10--
--------------------------5-5-5-5-3-3-/10-10-- 

Bridge ("They didn't want it..."):

guitar 1:
E5-----------------------G5----------F5----C5

--------------------------------------------------
--------------------------------------------------
--------------------------------------------------
-14-14-14-14-14-14-------5--5--5--5--3--3-/10-10--
-14-14-14-14-14-14-------5--5--5--5--3--3-/10-10--
-14-14-14-14-14-14-12\---5--5--5--5--3--3-/10-10--

guitar 2:
---------------------------------------------------
---------------------------------------------------
-9--9--9--9--9--9--9--9---16-16-16-16-14-14-14-12--
-9--9--9--9--9--9--9--9----------------------------
-7--7--7--7--7--7--7--7---14-14-14-14-12-12-12-10--
---------------------------------------------------  

Second Verse ("Little Eiffel stands..."):

guitars 1 & 2:
B5---D5--G5--E5--D5

----------------------
----------------------
----------------------
-4-4-7-7--------------
-2-2-5-5-5-5-2-2-0-0--
---------5-5-2-2-0-0--

    then (bar of 2/4; "...make sense..."):

guitars 1 & 2:
A5
----
----
----
----
-7--
-7--

    then ("Keeping low doesn't make no-sense! Little..."):

guitars 1 & 2:
B5---D5----G5--E5--D5

------------------------
------------------------
------------------------
------------------------
-9-9-12-12-5-5-2-2-0-0--
-9-9-12-12-5-5-2-2-0-0--

    then (bar of 2/4; "...stands in the..."):

guitar 1:
A5
----
----
----
----
-7--
-7--

guitar 2:
----
-0--
-0--
-0--
-0--
----

    then ("...archway."):

guitar 1:
B5----------------------D5-------------G5----------------E5--------------D5

------------------------------------------------------------------------------------------
------------------------------------------------------------------------------------------
------------------------------------------------------------------------------------------
-9--9--9--9--9--9--9--9-12-12-12-12-12-5-5-5-5-5-5-5-5-5-2-2-2-2-2-2-2-2-0-0-0-0-0-0-0-0--
-9--9--9--9--9--9--9--9-12-12-12-12-12-5-5-5-5-5-5-5-5-5-2-2-2-2-2-2-2-2-0-0-0-0-0-0-0-0--
-9--9--9--9--9--9--9--9-12-12-12-12-12-5-5-5-5-5-5-5-5-5-2-2-2-2-2-2-2-2-0-0-0-0-0-0-0-0--

guitar 2:
------------------------------------------------------------------------------------------
------------------------------------------------------------------------------------------
------------------------------------------------------------------------------------------
-10-10-9-9-10-10-9-9-10-10-9-9-7-7-5-5-10-10-9-9-7-7-5-5-4-4-2-2-0-0----------------------
---------------------------------------------------------------------3-3-2-2-3-3-2-2-3-3--
------------------------------------------------------------------------------------------

    then (bar of 2/4):

guitar 1:
A5
----
----
----
-7--
-7--
-7--

guitar 2:
------------
------------
------------
-10-10-9-9--
------------
------------

    then:

guitar 1:
B5----------------------D5-------------G5----------------E5--------------D5

------------------------------------------------------------------------------------------
------------------------------------------------------------------------------------------
------------------------------------------------------------------------------------------
-9--9--9--9--9--9--9--9-12-12-12-12-12-5-5-5-5-5-5-5-5-5-2-2-2-2-2-2-2-2-0-0-0-0-0-0-0-0--
-9--9--9--9--9--9--9--9-12-12-12-12-12-5-5-5-5-5-5-5-5-5-2-2-2-2-2-2-2-2-0-0-0-0-0-0-0-0--
-9--9--9--9--9--9--9--9-12-12-12-12-12-5-5-5-5-5-5-5-5-5-2-2-2-2-2-2-2-2-0-0-0-0-0-0-0-0--

guitar 2:
------------------------------------------------------------------------------------------
------------------------------------------------------------------------------------------
------------------------------------------------------------------------------------------
-10-10-9-9-10-10-9-9-10-10-9-9-7-7-5-5-10-10-9-9-7-7-5-5-4-4-2-2-0-0----------------------
---------------------------------------------------------------------3-3-2-2-3-3-2-2-3-3--
------------------------------------------------------------------------------------------

guitar 4 (distortion on):
------------------------------------------------------------------------------------------
------------------------------------------------------------------------------------------
----------------------------------------9-9--7-7-5-5-4-4-2-2-0-0--------------------------
-----------------------------------------------------------------4-4-2-2-0-0-2-2-0-0-2-2--
------------------------------------------------------------------------------------------
------------------------------------------------------------------------------------------

    then (bar of 2/4):

guitar 1:
A5
----
----
----
-7--
-7--
-7--

guitar 2:
------------
------------
------------
-10-10-9-9--
------------
------------

guitar 4 : out

    then:

guitar 1:

B5----------------------D5-------------G5----------------E5--------------D5

------------------------------------------------------------------------------------------
------------------------------------------------------------------------------------------
------------------------------------------------------------------------------------------
-9--9--9--9--9--9--9--9-12-12-12-12-12-5-5-5-5-5-5-5-5-5-2-2-2-2-2-2-2-2-0-0-0-0-0-0-0-0--
-9--9--9--9--9--9--9--9-12-12-12-12-12-5-5-5-5-5-5-5-5-5-2-2-2-2-2-2-2-2-0-0-0-0-0-0-0-0--
-9--9--9--9--9--9--9--9-12-12-12-12-12-5-5-5-5-5-5-5-5-5-2-2-2-2-2-2-2-2-0-0-0-0-0-0-0-0--

guitar 2:
------------------------------------------------------------------------------------------
------------------------------------------------------------------------------------------
------------------------------------------------------------------------------------------
-10-10-9-9-10-10-9-9-10-10-9-9-7-7-5-5-10-10-9-9-7-7-5-5-4-4-2-2-0-0----------------------
---------------------------------------------------------------------3-3-2-2-3-3-2-2-3-3--
------------------------------------------------------------------------------------------

guitar 4:
------------------------------------------------------------------------------------------
------------------------------------------------------------------------------------------
----------------------------------------9-9--7-7-5-5-4-4-2-2-0-0--------------------------
-----------------------------------------------------------------4-4-2-2-0-0-2-2-0-0-2-2--
------------------------------------------------------------------------------------------
------------------------------------------------------------------------------------------

guitar 5 (keyboard):
------------------------------------------------------------------------------------------
-12------------------15-------------------------------8----------------5---------------3--
------------------------------------------------------------------------------------------
--9------------------12-------------------------------5----------------2---------------0--
------------------------------------------------------------------------------------------
------------------------------------------------------------------------------------------

    then (bar of 2/4):

guitar 1:
A5
----
----
----
-7--
-7--
-7--

guitar 2:
------------
------------
------------
-10-10-9-9--
------------
------------

guitar 4 : out

guitar 5:
-7--
----
----
----
----
----

    then:

guitar 1:
B5----------------------D5-------------G5----------------E5--------------D5

------------------------------------------------------------------------------------------
------------------------------------------------------------------------------------------
------------------------------------------------------------------------------------------
-9--9--9--9--9--9--9--9-12-12-12-12-12-5-5-5-5-5-5-5-5-5-2-2-2-2-2-2-2-2-0-0-0-0-0-0-0-0--
-9--9--9--9--9--9--9--9-12-12-12-12-12-5-5-5-5-5-5-5-5-5-2-2-2-2-2-2-2-2-0-0-0-0-0-0-0-0--
-9--9--9--9--9--9--9--9-12-12-12-12-12-5-5-5-5-5-5-5-5-5-2-2-2-2-2-2-2-2-0-0-0-0-0-0-0-0--

guitar 2:
------------------------------------------------------------------------------------------
------------------------------------------------------------------------------------------
------------------------------------------------------------------------------------------
-10-10-9-9-10-10-9-9-10-10-9-9-7-7-5-5-10-10-9-9-7-7-5-5-4-4-2-2-0-0----------------------
---------------------------------------------------------------------3-3-2-2-3-3-2-2-3-3--
------------------------------------------------------------------------------------------

guitar 4:
------------------------------------------------------------------------------------------
------------------------------------------------------------------------------------------
----------------------------------------9-9--7-7-5-5-4-4-2-2-0-0--------------------------
-----------------------------------------------------------------4-4-2-2-0-0-2-2-0-0-2-2--
------------------------------------------------------------------------------------------
------------------------------------------------------------------------------------------

guitar 5:
--8---10----8--------7-----------------------------------------------------------10----8--
-------------------------------10---------8----------------------7-----8-----7-8----------
-----------------------------------------------------------9---------------7--------------
------------------------------------------------------------------------------------------
------------------------------------------------------------------------------------------
------------------------------------------------------------------------------------------

    then (bass and drums out; "Oh Alexander I....")

guitars 1 : out

guitars 2, 4, & 5 : same 

Outro (bass and drums in; play parts 1 & 2 eight times until 2:35; "Oh Alexander I..."):

    part 1:

** The 2/4 bar of the A5 chord is included in this part.

guitar 1:
A5**-------B5---------------------D5

--------------------------------------------------
--------------------------------------------------
--------------------------------------------------
-7--7--7-7-9--9--9--9--9--9--9--9-12-12-12-12-12--
-7--7--7-7-9--9--9--9--9--9--9--9-12-12-12-12-12--
-7--7--7-7-9--9--9--9--9--9--9--9-12-12-12-12-12--

guitar 2:
--------------------------------------------------
--------------------------------------------------
--------------------------------------------------
-10-10-9-9-10-10-9-9-10-10-9-9-10-10-9-9-7-7-5-5--
--------------------------------------------------
--------------------------------------------------

guitar 4 : out

guitar 5:
-7----------8---10----8--------7-------------
-----------------------------------------10--
---------------------------------------------
---------------------------------------------
---------------------------------------------
---------------------------------------------

    part 2 ("...see you beneath..."):

guitar 1:
G5-----------------E5--------------D5

----------------------------------------------------
----------------------------------------------------
----------------------------------------------------
-5-5-5-5-5-5-5-5-5-2-2-2-2-2-2-2-2-0-0-0-0-0-0-0-0--
-5-5-5-5-5-5-5-5-5-2-2-2-2-2-2-2-2-0-0-0-0-0-0-0-0--
-5-5-5-5-5-5-5-5-5-2-2-2-2-2-2-2-2-0-0-0-0-0-0-0-0--

guitar 2:
----------------------------------------------------
----------------------------------------------------
----------------------------------------------------
-10-10-9-9-7-7-5-5-4-4-2-2-0-0----------------------
-------------------------------3-3-2-2-3-3-2-2-3-3--
----------------------------------------------------

guitar 4:
----------------------------------------------------
----------------------------------------------------
--9-9--7-7-5-5-4-4-2-2-0-0--------------------------
---------------------------4-4-2-2-0-0-2-2-0-0-2-2--
----------------------------------------------------
----------------------------------------------------

guitar 5:
-------7-10------------------------------10----8--
--8-10---------8---------7-----8-----7-8----------
-------------------9---------------7--------------
--------------------------------------------------
--------------------------------------------------
--------------------------------------------------

    then (2:35; "Oh Alexander..."):

guitar 1:
A5---------B5---------------------D5
--------------------------------------------------
--------------------------------------------------
--------------------------------------------------
-7--7--7-7-9--9--9--9--9--9--9--9-12-12-12-12-12--
-7--7--7-7-9--9--9--9--9--9--9--9-12-12-12-12-12--
-7--7--7-7-9--9--9--9--9--9--9--9-12-12-12-12-12--

guitar 2:
--------------------------------------------------
--------------------------------------------------
--------------------------------------------------
-10-10-9-9-10-10-9-9-10-10-9-9-10-10-9-9-7-7-5-5--
--------------------------------------------------
--------------------------------------------------

guitar 4 : out

guitar 5:
-7----------8---10----8--------7-------------
-----------------------------------------10--
---------------------------------------------
---------------------------------------------
---------------------------------------------
---------------------------------------------

    then ("...see you beneath..."):

guitar 1:
G5-----------------E5--------------D5
----------------------------------------------------
----------------------------------------------------
----------------------------------------------------
-5-5-5-5-5-5-5-5-5-2-2-2-2-2-2-2-2-0-0-0-0-0-0-0-0--
-5-5-5-5-5-5-5-5-5-2-2-2-2-2-2-2-2-0-0-0-0-0-0-0-0--
-5-5-5-5-5-5-5-5-5-2-2-2-2-2-2-2-2-0-0-0-0-0-0-0-0--

guitar 2:
----------------------------------------------------
----------------------------------------------------
----------------------------------------------------
-10-10-9-9-7-7-5-5-4-4-2-2-0-0----------------------
-------------------------------3-3-2-2-3-3-2-2-3-3--
----------------------------------------------------

guitar 3:
--------------------------
-16b16.5r16b17r16-(etc.)--
---*----------------------
--------------------------
--------------------------
--------------------------
*this bend is a quarter-step bend

guitar 4:
----------------------------------------------------
----------------------------------------------------
--9-9--7-7-5-5-4-4-2-2-0-0--------------------------
---------------------------4-4-2-2-0-0-2-2-0-0-2-2--
----------------------------------------------------
----------------------------------------------------

guitar 5:
-------7-10------------------------------10----8--
--8-10---------8---------7-----8-----7-8----------
-------------------9---------------7--------------
--------------------------------------------------
--------------------------------------------------
--------------------------------------------------

repeat and fade
Добавлено: 01.09.2013
Другие материалы по этой песне:
  • Аккорды и текст

Страница создана 01.09.2013
http://primanota.ru/get-up-kids/alec-eifel-chords.htm
Привет, Гость.
Предлагаем пройти революционный курс по гитаре.
Подарок от PrimaNota.Ru, забирай!