PrimaNota.ru - самый крупный в мире бесплатный архив песенных текстов, аккордов, табулатур и нот


Get Scared - Told Ya So - бас-таба, видео

Регистрация Запомнить меня
Войти через:  Facebook Google Twitter Vk Yandex Mail.ru

Get Scared - Told Ya So - бас-таба, видео

Печатать
Просмотров: 146
Intro 0:13
G|-----------------------------------------------------------------|
D|-----------------------------------------------------------------|
A|---------------------------------------------------------0-0-0-0-|
D|-------------------------3-2-0-----------------------------------|
A|-5-3-0-3-0---5-3-0-3-0-0-------3-5-3-0-3-0---5-3-0-3-0-0---------|
   1 + 2 + 3 + 4 + 1 + 2 + 3 + 4 + 1 + 2 + 3 + 4 + 1 + 2 + 3 + 4 +

G|-----------------------------------------------------------------|
D|-----------------------------------------------------------------|
A|-----------------------------------------------------------------|
D|-------------------------3-2-0---------------------------x-x-x-x-|
A|---3-0-3-0---5-3-0-3-0-0-------3-5-3-0-3-0---5-3-0-3-0-0---------|
   1 + 2 + 3 + 4 + 1 + 2 + 3 + 4 + 1 + 2 + 3 + 4 + 1 + 2 + 3 + 4 +

G|-----------------------------------------------------------------|
D|-----------------------------------------------------------------|
A|-----------------------------------------------------------------|
D|-------------------------3-2-0-----------------------------------|
A|-5-3-0-3-0---5-3-0-3-0-0-------3-5-3-0-3-0---5-3-0-3-0-0-x-x-x-x-|
   1 + 2 + 3 + 4 + 1 + 2 + 3 + 4 + 1 + 2 + 3 + 4 + 1 + 2 + 3 + 4 +

G|-----------------------------------------------------------------|
D|-----------------------------------------------------------------|
A|---------------------------------------------------------0-0-0/5-|
D|-------------------------3-2-0-----------------------------------|
A|---3-0-3-0---5-3-0-3-0-0-------3-5-3-0-3-0---5-3-0-3-0-0---------|
   1 + 2 + 3 + 4 + 1 + 2 + 3 + 4 + 1 + 2 + 3 + 4 + 1 + 2 + 3 + 4 +

Verse 0:34
G|-----------------------------------------------------------------|
D|-----------------------------------------------------------------|
A|---5-5-5-5-5-5-5-5-5-5-5-0-0---5---5-5-5-5-5-5-5-5-5-5-5-0-0---1-|
D|-----------------------------------------------------------------|
A|-----------------------------------------------------------------|
   1 + 2 + 3 + 4 + 1 + 2 + 3 + 4 + 1 + 2 + 3 + 4 + 1 + 2 + 3 + 4 +

G|-----------------------------------------------------------------|
D|-----------------------------------------------------------------|
A|---1-1-1-1-1-1-1-1-1-1-1-1-1---------------------7-7-7-7-7-7-\-5-|
D|-------------------------------2---2-2-2-2-2-2-2-----------------|
A|-----------------------------------------------------------------|
   1 + 2 + 3 + 4 + 1 + 2 + 3 + 4 + 1 + 2 + 3 + 4 + 1 + 2 + 3 + 4 +

G|-----------------------------------------------------------------|
D|---------7---5---------------------------7---5-------------------|
A|---5-5-5---5---5-5-5-5-5-0-0---5---5-5-5---5---5-5-5-5-5-0-0---1-|
D|-----------------------------------------------------------------|
A|-----------------------------------------------------------------|
   1 + 2 + 3 + 4 + 1 + 2 + 3 + 4 + 1 + 2 + 3 + 4 + 1 + 2 + 3 + 4 +

G|-----------------------------------------------------------------|
D|---------3-----3---------2-2-2-2---------------------------------|
A|---1-1-1---------1-1-1-1-------------------------7-7-7-7-7-\-----|
D|---------------------------------2-2-2-2-2-2-2-2-----------------|
A|-----------------------------------------------------------------|
   1 + 2 + 3 + 4 + 1 + 2 + 3 + 4 + 1 + 2 + 3 + 4 + 1 + 2 + 3 + 4 +

Chorus 0:55
G|-----------------------------------------------------------------|
D|-----------------------------------------------------------------|
A|-----------------------------------------------------------------|
D|-----------------------------------------------------------------|
A|-5-5-5-5-5-5-5-5-5-5-5-5-5-5-5-5-3-3-3-3-3-3-3-3-3-3-3-3-3-3-3-3-|
   1 + 2 + 3 + 4 + 1 + 2 + 3 + 4 + 1 + 2 + 3 + 4 + 1 + 2 + 3 + 4 +

G|-----------------------------------------------------------------|
D|-----------------------------------------------------------------|
A|-----------------------------------------------------------------|
D|-----------------3-3---------------------------------3---3-3-----|
A|-1-1-1-1-1-1-1-1---------1-1-1-1-0-0---0-0---0-0---0---------3-3-|
   1 + 2 + 3 + 4 + 1 + 2 + 3 + 4 + 1 + 2 + 3 + 4 + 1 + 2 + 3 + 4 +

G|-----------------------------------------------------------------|
D|-----------------------------------------------------------------|
A|-----------------------------------------------------------------|
D|---------------------3---2-2-3-3-----------------3-2-3---5-5-3---|
A|-5-5-5-5-5-5-5-5-5-3-------------3-3-3-3-3-3-3-3-----------------|
   1 + 2 + 3 + 4 + 1 + 2 + 3 + 4 + 1 + 2 + 3 + 4 + 1 + 2 + 3 + 4 +

G|-----------------------------------------------------------------|
D|-----------------------------------------------------------------|
A|-----------------------------------------------------------------|
D|---------3-3---------------------------------------------7-\-----|
A|-1-1-1-1-----1---1-1-----1-1-----0-0---0-0---0-0---0-0-----------|
   1 + 2 + 3 + 4 + 1 + 2 + 3 + 4 + 1 + 2 + 3 + 4 + 1 + 2 + 3 + 4 +

Interlude 1:16
G|-----------------------------------------------------------------|
D|-----------------------------------------------------------------|
A|---------------------------------------------------------0-0-0-0-|
D|-------------------------3-2-0-----------------------------------|
A|-5-3-0-3-0-0-5-3-0-3-0-0-------3-5-3-0-3-0-0-5-3-0-3-0-0---------|
   1 + 2 + 3 + 4 + 1 + 2 + 3 + 4 + 1 + 2 + 3 + 4 + 1 + 2 + 3 + 4 +

G|-----------------------------------------------------------------|
D|-----------------------------------------------------------------|
A|---------------------------------------------------------0-0-0/5-|
D|-------------------------3-2-0-----------------------------------|
A|---------0-------0-------------3-5-3-0-3-0-0-5-3-0-3-0-0---------|
   1 + 2 + 3 + 4 + 1 + 2 + 3 + 4 + 1 + 2 + 3 + 4 + 1 + 2 + 3 + 4 +

Verse 1:27
G|-----------------------------------------------------------------|
D|-----------------------------------------------------------------|
A|---5-5---5---5---5---5---0-----5---5-5---5---5---5---5---0-----1-|
D|-----------------------------------------------------------------|
A|-----------------------------------------------------------------|
   1 + 2 + 3 + 4 + 1 + 2 + 3 + 4 + 1 + 2 + 3 + 4 + 1 + 2 + 3 + 4 +

G|-----------------------------------------------------------------|
D|-----------------------------------------------------------------|
A|---1-1---1---1---1---1---1-1-------------------/-7-7-7-7-7-7---5-|
D|-------------------------------2---2-2---2---2---------------9---|
A|-----------------------------------------------------------------|
   1 + 2 + 3 + 4 + 1 + 2 + 3 + 4 + 1 + 2 + 3 + 4 + 1 + 2 + 3 + 4 +

G|-----------------------------------------------------------------|
D|---------7---5---------------------------7---5-------------------|
A|---5-5-5---5---5-5-5-5-5-0-0---5---5-5-5---5---5-5-5-5-5-0-0---1-|
D|-----------------------------------------------------------------|
A|-----------------------------------------------------------------|
   1 + 2 + 3 + 4 + 1 + 2 + 3 + 4 + 1 + 2 + 3 + 4 + 1 + 2 + 3 + 4 +

G|-----------------------------------------------------------------|
D|---------3-3-3-3---------2-2-2-2---------------------------------|
A|---1-1-1---------1-1-1-1-------------------------7-7-7-7-7-\-----|
D|---------------------------------2-2-2-2-2-2-2-2-----------------|
A|-----------------------------------------------------------------|
   1 + 2 + 3 + 4 + 1 + 2 + 3 + 4 + 1 + 2 + 3 + 4 + 1 + 2 + 3 + 4 +

Chorus 1:49
G|-----------------------------------------------------------------|
D|-----------------------------------------------------------------|
A|-----------------------------------------------------------------|
D|-----------------------------------------------------------------|
A|-5-5-5-5-5-5-5-5-5-5-5-5-5-5-5-5-3-3-3-3-3-3-3-3-3-3-3-3-3-3-3-3-|
   1 + 2 + 3 + 4 + 1 + 2 + 3 + 4 + 1 + 2 + 3 + 4 + 1 + 2 + 3 + 4 +

G|-----------------------------------------------------------------|
D|-----------------------------------------------------------------|
A|-----------------------------------------------------------------|
D|-----------------------------------------------------------------|
A|-1-1-1-1-1-1-1-1-1-1-1-1-1-1-1-1-0-0---0-0---0-0---0-0---0-0-0-0-|
   1 + 2 + 3 + 4 + 1 + 2 + 3 + 4 + 1 + 2 + 3 + 4 + 1 + 2 + 3 + 4 +

G|-----------------------------------------------------------------|
D|-----------------------------------------------------------------|
A|-----------------------------------------------------------------|
D|-------------------------2-2-3-3-----------------3-2-3---5-3-3-2-|
A|-5-5-5-5-5-5-5-5-5-3-5-5---------3-3-3-3-3-3-3-3-----------------|
   1 + 2 + 3 + 4 + 1 + 2 + 3 + 4 + 1 + 2 + 3 + 4 + 1 + 2 + 3 + 4 +

G|-----------------------------------------------------------------|
D|-----------------------------------------------------------------|
A|-----------------------------------------------------------------|
D|-----------------------------------------------------------------|
A|-1-1-----1-1-1-1-1-1-1-1-1-1-1-1-0-0---0-0---0-0---0-0---0-0-0-0-|
   1 + 2 + 3 + 4 + 1 + 2 + 3 + 4 + 1 + 2 + 3 + 4 + 1 + 2 + 3 + 4 +

Intelude 2:10
G|---------------------------------|
D|---------------------------------|
A|---------------------------------|
D|-3-2-0-------3-2-----0-0-5-5-2-2-|
A|-------3-0-0-----0-0-------------|
   1 + 2 + 3 + 4 + 1 + 2 + 3 + 4 + 

Bridge 2:13
G|-----------------------------------------------------------------|
D|-----------------------------------------------------------------|
A|-----------------------------------------------------------------|
D|---------------------------7-----6-6-6-6-----------------6---\---|
A|-0-0-0-0-----------------0---------------------------------------|
   1 + 2 + 3 + 4 + 1 + 2 + 3 + 4 + 1 + 2 + 3 + 4 + 1 + 2 + 3 + 4 +

G|-----------------------------------------------------------------|
D|-----------------------------------------------------------------|
A|-----------------------------------------------------------------|
D|-7-7-7-7-----------------7-------6-6-6-6---------------6-9---\---|
A|---------------------------0-------------------------------------|
   1 + 2 + 3 + 4 + 1 + 2 + 3 + 4 + 1 + 2 + 3 + 4 + 1 + 2 + 3 + 4 +

2:23
G|-----------------------------------------------------------------|
D|-----------------------------------------------------------------|
A|-----------------------------------------------------------------|
D|-7-7-7-7-7---------7-----7-------6-6-6-6-6-------6-6-6---6-6-6-6-|
A|---------------------------0-------------------------------------|
   1 + 2 + 3 + 4 + 1 + 2 + 3 + 4 + 1 + 2 + 3 + 4 + 1 + 2 + 3 + 4 +

G|-----------------------------------------------------------------|
D|-----------------------------------------------------------------|
A|-----------------------------------------------------------------|
D|-7-7-7-7-7---------7-----7-------6-6-6-6-6-------6-6-6-6-6-6-6-6-|
A|---------------------------0-------------------------------------|
   1 + 2 + 3 + 4 + 1 + 2 + 3 + 4 + 1 + 2 + 3 + 4 + 1 + 2 + 3 + 4 +

G|-----------------------------------------------------------------|
D|-----------------------------------------------------------------|
A|-----------------------------------------------------------------|
D|-6-6-6-6-6-6-6-6-6-6-6-6-6-6-6-6---------------------------------|
A|-----------------------------------------------------------------|
   1 + 2 + 3 + 4 + 1 + 2 + 3 + 4 + 1 + 2 + 3 + 4 + 1 + 2 + 3 + 4 +

Chorus 2:39
G|-----------------------------------------------------------------|
D|-----------------------------------------------------------------|
A|-----------------------------------------------------------------|
D|-----------------------------------------------------------------|
A|-5-5-5-5-5-5-5-5-5-5-5-5-5-5-5-5-3-3-3-3-3-3-3-3-3-3-3-3-3-3-3-3-|
   1 + 2 + 3 + 4 + 1 + 2 + 3 + 4 + 1 + 2 + 3 + 4 + 1 + 2 + 3 + 4 +

G|-----------------------------------------------------------------|
D|-----------------------------------------------------------------|
A|-----------------------------------------------------------------|
D|-----------------------------------------------------------------|
A|-1-1-----1-1-1-1-1-1-----1-1-1-1-0-0---0-0---0-0---0-0---5-5-3-3-|
   1 + 2 + 3 + 4 + 1 + 2 + 3 + 4 + 1 + 2 + 3 + 4 + 1 + 2 + 3 + 4 +

G|-----------------------------------------------------------------|
D|-----------------------------------------------------------------|
A|-----------------------------------------------------------------|
D|-------------------------2-2-3-3-----------------3-2-3---5-5-3---|
A|-5-5-5-5-5-5-5-5-5-3-5-----------3-3-3-3-3-3-3-3-----------------|
   1 + 2 + 3 + 4 + 1 + 2 + 3 + 4 + 1 + 2 + 3 + 4 + 1 + 2 + 3 + 4 +

G|-----------------------------------------------------------------|
D|-----------------------------------------------------------------|
A|-----------------1-1-1-1-----------------------------------------|
D|-------------------------3-3-3-3---------------------------------|
A|-1-1-1-1-1-1-1-1-----------------0-0---0-0---0-0---0-0---0-0-0-0-|
   1 + 2 + 3 + 4 + 1 + 2 + 3 + 4 + 1 + 2 + 3 + 4 + 1 + 2 + 3 + 4 +

3:01
G|---------------------------------|
D|---------------------------------|
A|---------------------------------|
D|-3-2-0-------3-2---0-2-3-5-\-----|
A|-------3-0-0-----0---------------|
   1 + 2 + 3 + 4 + 1 + 2 + 3 + 4 + 

3:03
G|-----------------------------------------------------------------|
D|-----------------------------------------------------------------|
A|---------------------------------------------------------0-0-0-0-|
D|-------------------------3-2-0-----------------------------------|
A|-5-3-0-3-0---5-3-0-3-0---------3-5-3-0-3-0---5-3-0-3-0-----------|
   1 + 2 + 3 + 4 + 1 + 2 + 3 + 4 + 1 + 2 + 3 + 4 + 1 + 2 + 3 + 4 +

G|-----------------------------------------------------------------|
D|-----------------------------------------------------------------|
A|-----------------------------------------------------------------|
D|-------------------------3-2-0-----------------------------------|
A|---3-0-3-0---5-3-0-3-0---------3-5-3-0-3-0---5-3-0-3-0---0-0-----|
   1 + 2 + 3 + 4 + 1 + 2 + 3 + 4 + 1 + 2 + 3 + 4 + 1 + 2 + 3 + 4 +

Tabbed by Dave Vucko
Добавлено: 15.11.2013
Другие материалы по этой песне:
  • Аккорды и текст

Страница создана 15.11.2013
http://primanota.ru/get-scared/told-ya-so-chords.htm
Привет, Гость.
Предлагаем пройти революционный курс по гитаре.
Подарок от PrimaNota.Ru, забирай!