PrimaNota.ru - самый крупный в мире бесплатный архив песенных текстов, аккордов, табулатур и нот


Get Scared - Setting Yourself Up For Sarcasm - таба, видео

Регистрация Запомнить меня
Войти через:  Facebook Google Twitter Vk Yandex Mail.ru

Get Scared - Setting Yourself Up For Sarcasm - таба, видео

Печатать
Просмотров: 189
Tabbed by: Joshua Garcia (joshuag523@aol.com)

Tabs for the song: Setting Yourself Up For Sarcasm by Get Scared
Please rate and let me know if you have any corrections. Thank you.


Tuning: Drop D (D A D G B E)


Intro
Guitar 1:
E||-------------------------------------------------------------------|
B||-------------------------------------------------------------------|
G||-------------------------------------------------------------------|
D||-------------------------------------------------------------------|
A||--------5---7---8--------5----8--7-5-------5---5-7--------4---4-5--|
D||--0----------------0------------------8--8---8-------7--7---7------|
     .     .   .   .  .     .    .  . .  .  . . . . .   .  . . . . .

E||--------------------------------------------------------|------------|
B||--------------------------------------------------------|------------|
G||--------------------------------------------------------|------------|
D||--------------------------------------------------------|------------|
A||--------5---7---8--------5----8--7-5-------5---5-7-5----|--x--x---x--|
D||--0----------------0------------------8--8---8-------7--|--x--x---x--|
     .     .   .   .  .     .    .  . .  .  . . . . .   .


Verse
Guitar 1/2:
E||--------------------------------------------------------------------|
B||--------------------------------------------------------------------|
G||--------------------------------------------------------------------|
D||--------------------------------------------------------------------|
A||--------5---7---8---------5---8--7-5-------5---5-7~-------4---4-5~--|
D||--0--0----0---0----0-0--0---0---------8--8---8-------7--7---7-------|
     .  .  . . . . .  . .  . . . .  . .  .  . . .       .  . . .


Guitar 1:
E||-----------------------------------------------------------------------|
B||----------------------------------------------------------------6-6-6--|
G||--------------------------------------------------------7-7-7---x-x-x--|
D||--------------------------------------------------------x-x-x---x-x-x--|
A||--------5---7---8---------5---8--7-5-------5---5-7-5-4--5-5-5---4-4-4--|
D||--0--0----0---0----0-0--0---0---------8--8---8-------------------------|
     .  .  . . . . .  . .  . . . .  . .  .  . . .


Guitar 1:
E||-----------------------------------------------------------------------|
B||----------------------------------------------------------------6-6-6--|
G||--------------------------------------------------------7-7-7---x-x-x--|
D||--------------------------------------------------------x-x-x---x-x-x--|
A||--------5---7---8---------5---8--7-5-------5---5-7-5----5-5-5---4-4-4--|
D||--0--0----0---0----0-0--0---0---------8--8---8-------7-----------------|
     .  .  . . . . .  . .  . . . .  . .  .  . . .


Guitar 1:
E||------------------------------------------------------|
B||------------------------------------------------------|
G||------------------------------------------------------|
D||-----7--7--7--7--7--5-/7\5/8--88--8--8--5--5--5--5~5--|
A||------------------------------------------------------|
D||--0---------------------------------------------------|


Guitar 2:
E||------------------------------------------------------|
B||------------------------------------------------------|
G||------------------------------------------------------|
D||------------------------------------------------------|
A||--------------------------------------------x--x---x--|
D||--------------------------------------------x--x---x--|


Guitar 1:
E||--------------------------------------------|
B||--------------------------------------------|
G||--------------------------------------------|
D||-----7--7--7--7--7--5-/7\5/8--88--8-10-8-7--|
A||--------------------------------------------|
D||--0-----------------------------------------|


Guitar 2:
E||--------------------------------------------------------|
B||--------------------------------------------------------|
G||--------------------------------------------------------|
D||--------------------------------------------------------|
A||--------5---7---8---------5---8--7-5-------5---5-7-5-4--|
D||--0--0----0---0----0-0--0---0---------8--8---8----------|
     .  .  . . . . .  . .  . . . .  . .  .  .   .


Chorus
Guitar 1:
E||----------------------------------------------------------|
B||----------------------------------------------------------|
G||--------------------------------------------10--1010-10~--|
D||--0~---0~-0~-0~-0~-8--8-7~--5~--5~-5~-5~-5~-x---x-x--x----|
A||--0~---0~-0~-0~-0~-8--8-7~--5~--5~-5~-5~-5~-8---8-8--8~---|
D||--0~---0~-0~-0~-0~-8--8-7~--5~--5~-5~-5~-5~---------------|


Guitar 2:
E||-----------------------------------------------------|
B||-----------------------------------------------------|
G||-----------------------------------------------------|
D||--0~---0~-0~-0~-0~-8--8-7~--5~--5~-5~-5~-5~-3--3-2~--|
A||--0~---0~-0~-0~-0~-8--8-7~--5~--5~-5~-5~-5~-3--3-2~--|
D||--0~---0~-0~-0~-0~-8--8-7~--5~--5~-5~-5~-5~-3--3-2~--|


Guitar 1/2:
E||------------------------------------------------------|
B||------------------------------------------------------|
G||--------------------------------------------77-77-7~--|
D||--0~---0~-0~-0~-0~-8--8-7~--5~--5--5--5--5--xx-xx-x---| x2
A||--0~---0~-0~-0~-0~-8--8-7~--5~--5--5--5--5--55-55-5~--|
D||--0~---0~-0~-0~-0~-8--8-7~--5~--5--5--5--5------------|



Verse
Guitar 1:
E||--------------------------------------------------------------------|
B||--------------------------------------------------------------------|
G||--------------------------------------------------------------------|
D||--------------------------------------------------------------------|
A||--------5---7---8---------5---8--7-5-------5---5-7~-------4---4-5~--|
D||--0--0----0---0----0-0--0---0---------8--8---8-------7--7---7-------|
     .  .  . . . . .  . .  . . . .  . .  .  . . . . .   .  . . . . .

E||-------------------------------------------------------------|
B||-------------------------------------------------------------|
G||-------------------------------------------------------------|
D||-------------------------------------------------------------|
A||--------5---7---8---------5---8--7-5-------5---5-7-5-4-------|
D||--0--0----0---0----0-0--0---0---------8--8---8---------7~-\--|
     .  .  . . . . .  . .  . . . .  . .  .  . . . . . . . .


Guitar 2:
E||---------------------------------------|-------------------------------------|
B||---------------------------------------|-------------------------------------|
G||--7-7-7-7-7-7-77-77-77-7-7-7-6-6-6-66--|--7-7-7-7-7-7-77-77-77-7-7-77-77~-\--|
D||--x-x-x-x-x-x-xx-xx-xx-x-x-x-x-x-x-xx--|--x-x-x-x-x-x-xx-xx-xx-x-x-xx-xx--\--|
A||--5-5-5-5-5-5-55-55-55-5-5-5-4-4-4-44--|--5-5-5-5-5-5-55-55-55-5-5-55-55~-\--|
D||---------------------------------------|-------------------------------------|



Guitar 1/2:
E||--------------------------------------------------------------------|
B||--------------------------------------------------------------------|
G||--------------------------------------------------------------------|
D||--------------------------------------------------------------------|
A||--------5---7---8---------5---8--7-5-------5---5-7~-------4---4-5~--|
D||--0--0----0---0----0-0--0---0---------8--8---8-------7--7---7-------|


E||--------------------------------------------------------|
B||--------------------------------------------------------|
G||--------------------------------------------------------|
D||--------------------------------------------------------|
A||--------5---7---8---------5---8--7-5-------5---5-7-5-4--|
D||--0--0----0---0----0-0--0---0---------8--8---8----------|


Guitar 1:
E||---------------------------------|
B||----------6-6-6-----------6-6-6--|
G||--7-7-7---x-x-x---6-6-6---x-x-x--|
D||--x-x-x---x-x-x---x-x-x---x-x-x--|
A||--5-5-5---4-4-4---4-4-4---4-4-4--|
D||---------------------------------|


Guitar 2:
E||------------------3-3-3----------|
B||----------6-6-6---x-x-x---6-6-6--|
G||--7-7-7---x-x-x---x-x-x---x-x-x--|
D||--x-x-x---x-x-x---x-x-x---x-x-x--|
A||--5-5-5---4-4-4---4-4-4---4-4-4--|
D||---------------------------------|



Chorus
Guitar 1:
E||----------------------------------------------------------|
B||----------------------------------------------------------|
G||--------------------------------------------10--1010-10~--|
D||--0~---0~-0~-0~-0~-8--8-7~--5~--5~-5~-5~-5~-x---x-x--x----|
A||--0~---0~-0~-0~-0~-8--8-7~--5~--5~-5~-5~-5~-8---8-8--8~---|
D||--0~---0~-0~-0~-0~-8--8-7~--5~--5~-5~-5~-5~---------------|


Guitar 2:
E||-----------------------------------------------------|
B||-----------------------------------------------------|
G||-----------------------------------------------------|
D||--0~---0~-0~-0~-0~-8--8-7~--5~--5~-5~-5~-5~-3--3-2~--|
A||--0~---0~-0~-0~-0~-8--8-7~--5~--5~-5~-5~-5~-3--3-2~--|
D||--0~---0~-0~-0~-0~-8--8-7~--5~--5~-5~-5~-5~-3--3-2~--|


Guitar 1/2:
E||------------------------------------------------------|
B||------------------------------------------------------|
G||--------------------------------------------77-77-7~--|
D||--0~---0~-0~-0~-0~-8--8-7~--5~--5--5--5--5--xx-xx-x---| x2
A||--0~---0~-0~-0~-0~-8--8-7~--5~--5--5--5--5--55-55-5~--|
D||--0~---0~-0~-0~-0~-8--8-7~--5~--5--5--5--5------------|



Interlude
Guitar 1:
E||------|------|------|
B||------|------|------|
G||------|--7~--|--7~--|
D||--0~--|--x---|--x---|
A||--0~--|--5~--|--5~--|
D||--0~--|------|------|


Guitar 2:
E||------|------|------|
B||------|------|------|
G||------|------|------|
D||--0~--|------|------|
A||--0~--|------|------|
D||--0~--|--8~--|--5~--|


Guitar 1/2:
E||---------------------------------------------------------------------|
B||---------------------------------------------------------------------|
G||---------------------------------------------------------------------|
D||------------------------------------------------------------------5--|
A||------------------------------------------------------------------5--|
D||--0-0-0-0-0-0-0-0-0-0-0-0-0-0-0-0-8-8-8-8-8-8-8-8-8-5-5-5-5-5-5-5-5--|
     . . . . . . . . . . . . . . . . . . . . .



Bridge
Guitar 1/2:
E||-------------------------------------------------------------|
B||-------------------------------------------------------------|
G||--2--2-2-2--2-2-0--0-0-0--0-0---2-2----2-2-----0-0----0-0----|
D||--1--1-1-1--1-1-1--1-1-1--1-1---1-1----1-1-----1-1----1-1----|
A||--1--1-1-1--1-1-1--1-1-1--1-1---1-1----1-1-----1-1----1-1----|
D||--1--1-1-1--1-1-1--1-1-1--1-1-1-1-1-11-1-1-111-1-1-11-1-1-1--|
                                 .     ..     ...     ..     .

E||-------------------------------------------------------------------|
B||-------------------------------------------------------------------|
G||-------------------------------------------------------------------|
D||-------------------------------------------------------------------|
A||--------------------------------------------------5-5-5-5-5-5-5-5--|
D||--5-5-5-5-5-5-5-5-8-8-8-8-8-8-8-8-4-4-4-4-4-4-4-4------------------|


E||-------------------------------------------------------------|
B||-------------------------------------------------------------|
G||--2--2-2-2--2-2-0--0-0-0--0-0---2-2----2-2-----0-0----0-0----|
D||--1--1-1-1--1-1-1--1-1-1--1-1---1-1----1-1-----1-1----1-1----|
A||--1--1-1-1--1-1-1--1-1-1--1-1---1-1----1-1-----1-1----1-1----|
D||--1--1-1-1--1-1-1--1-1-1--1-1-1-1-1-11-1-1-111-1-1-11-1-1-1--|
                                 .     ..     ...     ..     .


E||---------------------------|
B||---------------------------|
G||---------------------------|
D||--7~-----------------0--0--|
A||--5~-----------------0--0--|
D||--5~---5-5-5-5-5-5-5-0--0--|
          . . . . . . .


Guitar 1:
D#||-------------|
A#||-------------|
F#||-------------|
C#||--1~///////--|
G#||--1~///////--|
D#||--1~///////--|


Guitar 2:
D#||----------------|
A#||----------------|
F#||----------------|
C#||----------------|
G#||--///pick////---|
D#||--////slide///--|



Chorus
Guitar 1:
E||----------------------------------------------------------|
B||----------------------------------------------------------|
G||--------------------------------------------10--1010-10~--|
D||--0~---0~-0~-0~-0~-8--8-7~--5~--5~-5~-5~-5~-x---x-x--x----|
A||--0~---0~-0~-0~-0~-8--8-7~--5~--5~-5~-5~-5~-8---8-8--8~---|
D||--0~---0~-0~-0~-0~-8--8-7~--5~--5~-5~-5~-5~---------------|


Guitar 2:
E||-----------------------------------------------------|
B||-----------------------------------------------------|
G||-----------------------------------------------------|
D||--0~---0~-0~-0~-0~-8--8-7~--5~--5~-5~-5~-5~-3--3-2~--|
A||--0~---0~-0~-0~-0~-8--8-7~--5~--5~-5~-5~-5~-3--3-2~--|
D||--0~---0~-0~-0~-0~-8--8-7~--5~--5~-5~-5~-5~-3--3-2~--|


Guitar 1/2:
E||------------------------------------------------------|
B||------------------------------------------------------|
G||--------------------------------------------77-77-7~--|
D||--0~---0~-0~-0~-0~-8--8-7~--5~--5--5--5--5--xx-xx-x---| x3
A||--0~---0~-0~-0~-0~-8--8-7~--5~--5--5--5--5--55-55-5~--|
D||--0~---0~-0~-0~-0~-8--8-7~--5~--5--5--5--5------------|



Outro
Guitar 1/2:
E||---------------------|
B||---------------------|
G||---------------------|
D||--8~----5~----7---0--|
A||--8~----5~----7---0--|
D||--8~----5~----7---0--|




Tablature Legend
----------------
 h   - hammer-on
 p   - pull-off
 b   - bend
 r   - release bend
 *   - pinch harmonic
 '   - natural harmonic
 x   - mute note
 .   - palm mute
 /   - slide down
 \   - slide up
Добавлено: 22.10.2013
Другие материалы по этой песне:
  • Аккорды и текст

Страница создана 21.07.2013
http://primanota.ru/get-scared/setting-yourself-up-for-sarcasm-chords.htm
Привет, Гость.
Предлагаем пройти революционный курс по гитаре.
Подарок от PrimaNota.Ru, забирай!