PrimaNota.ru - самый крупный в мире бесплатный архив песенных текстов, аккордов, табулатур и нот


Get Scared - Dance With The Dead - бас-таба, видео

Регистрация Запомнить меня
Войти через:  Facebook Google Twitter Vk Yandex Mail.ru

Get Scared - Dance With The Dead - бас-таба, видео

Печатать
Просмотров: 312
Can be played in Drop C#

G|--------------------------------------------------|-------|
D|o------------------------------------------------o|-------|
A|--5-----5-----5-----8-7-5-4-----4-----1-----0-----|-5-----|
D|o------------------------------------------------o|-------|
A|--------------------------------------------------|-------|
    1 2 3 4 5 6 1 2 3 4 5 6 1 2 3 4 5 6 1 2 3 4 5 6   1

Rest

0:39
G|---------------------------------------------------------|
D|---------------------------------------------------------|
A|---------------------------------------------------------|
D|-0-0-0-0-0-0-0-0-0-0-2-2-2-2-2-2-5-5-5-5-5-5-5-5-3-3-2-2-|
A|---------------------------------------------------------|
   5 + 6 + 1 + 2 + 3 + 4 + 5 + 6 + 1 + 2 + 3 + 4 + 5 + 6 + 

G|-------------------------------------------------|
D|-------------------------------------------------|
A|-------------------------------------------------|
D|-------------------------------------------------|
A|-4-4-4-4-4-4-4-4-4-4-4-4-4-4-4-4-4-4-4-----------|
   1 + 2 + 3 + 4 + 5 + 6 + 1 + 2 + 3 + 4 + 5 + 6 + 

Chorus 0:49                                        1 + 2 + 3 + = 1  + 2  + 3
G|-------------------------------------------------------------------------------------------------|
D|-------------------------------------------------------------------------------------------------|
A|---------------------------------------------0---1---1-1-1-1-1---1-1-1-1-0---0-0-0-0-0---0-0-0-0-|
D|-0-----------0-----------0-----------0---5-------------------------------------------------------|
A|-------------------------------------------------------------------------------------------------|
   1 + 2 + 3 + 4 + 5 + 6 + 1 + 2 + 3 + 4 + 5 + 6 + 1 + 2 + 3 + 4 + 5 + 6 + 1 + 2 + 3 + 4 + 5 + 6 +

G|-------------------------------------------------------------------------------------------------|
D|-------------------------------------------------------------------------------------------------|
A|-------------------------------------1-------0---1---1-1-1-1-1---1-1-1-1-0---0-0-0-0-------------|
D|-0-----------0-----------0---------------5------------------------------------------(0)----------|
A|-------------------------------------------------------------------------------------Faintly-----|
   1 + 2 + 3 + 4 + 5 + 6 + 1 + 2 + 3 + 4 + 5 + 6 + 1 + 2 + 3 + 4 + 5 + 6 + 1 + 2 + 3 + 4 + 5 + 6 +

Verse 1:08
G|-------------------------------------------------------------------------------------------------|
D|-------------------------------------------------------------------------------------------------|
A|-------------------------------------------------------------------------1---4---5---0---8-8-7-7-|
D|-0-----------0-----------0-----------3---2---0---------------------------------------------------|
A|-------------------------------------------------4-----------4-----------------------------------|
   1 + 2 + 3 + 4 + 5 + 6 + 1 + 2 + 3 + 4 + 5 + 6 + 1 + 2 + 3 + 4 + 5 + 6 + 1 + 2 + 3 + 4 + 5 + 6 + 

G|-------------------------------------------------------------------------------------------------|
D|-------------------------------------------------------------------------------------------------|
A|-------------------------------------------------------------------------1---4---5---0-----------|
D|-0-----------0-----------0-----------3---2---0---------------------------------------------------|
A|-------------------------------------------------4-----------4-----------------------------------|
   1 + 2 + 3 + 4 + 5 + 6 + 1 + 2 + 3 + 4 + 5 + 6 + 1 + 2 + 3 + 4 + 5 + 6 + 1 + 2 + 3 + 4 + 5 + 6 + 

Chorus 1:28
G|-------------------------------------------------------------------------------------------------|
D|-------------------------------------------------------------------------------------------------|
A|---------------------------------------------0---1---1-1-1-1-1---1-1-1-1-0---0-0-0-0-0---0-0-0-0-|
D|-0-----------0-----------0-----------0---5-------------------------------------------------------|
A|-------------------------------------------------------------------------------------------------|
   1 + 2 + 3 + 4 + 5 + 6 + 1 + 2 + 3 + 4 + 5 + 6 + 1 + 2 + 3 + 4 + 5 + 6 + 1 + 2 + 3 + 4 + 5 + 6 +

G|-------------------------------------------------------------------------------------------------|
D|-------------------------------------------------------------------------------------------------|
A|-------------------------------------1-------0---1---1-1-1-1-1---1-1-1-1-0---0-0-0-0-------------|
D|-0-----------0-----------0---------------5-------------------------------------------0-----------|
A|-------------------------------------------------------------------------------------------------|
   1 + 2 + 3 + 4 + 5 + 6 + 1 + 2 + 3 + 4 + 5 + 6 + 1 + 2 + 3 + 4 + 5 + 6 + 1 + 2 + 3 + 4 + 5 + 6 +

Verse 1:46
G|-------------------------------------------------------------------------------------------------|
D|-------------------------------------------------------------------------------------------------|
A|-------------------------------------------------------------------------1---4---5---0---8-8-7-7-|
D|-0-----------0-----------0-----------3---2---0---------------------------------------------------|
A|-------------------------------------------------4-----------4-----------------------------------|
   1 + 2 + 3 + 4 + 5 + 6 + 1 + 2 + 3 + 4 + 5 + 6 + 1 + 2 + 3 + 4 + 5 + 6 + 1 + 2 + 3 + 4 + 5 + 6 + 

G|-------------------------------------------------------------------------------------------------|
D|-------------------------------------------------------------------------------------------------|
A|-------------------------------------------------------------------------1---4---5---------------|
D|-0-------0---2-------2---5-------5---3---2---0---------------------------------------------------|
A|-------------------------------------------------4-------4---4-----------------------------------|
   1 + 2 + 3 + 4 + 5 + 6 + 1 + 2 + 3 + 4 + 5 + 6 + 1 + 2 + 3 + 4 + 5 + 6 + 1 + 2 + 3 + 4 + 5 + 6 + 

Chorus 2:06
G|-------------------------------------------------------------------------------------------------|
D|-------------------------------------------------------------------------------------------------|
A|---------------------------------------------0---1---1-1-1-1-1---1-1-1-1-0---0-0-0-0-0---0-0-0-0-|
D|-0-----------0-----------0-----------0---5-------------------------------------------------------|
A|-------------------------------------------------------------------------------------------------|
   1 + 2 + 3 + 4 + 5 + 6 + 1 + 2 + 3 + 4 + 5 + 6 + 1 + 2 + 3 + 4 + 5 + 6 + 1 + 2 + 3 + 4 + 5 + 6 +

G|-------------------------------------------------------------------------------------------------|
D|-------------------------------------------------------------------------------------------------|
A|-------------------------------------1-------0---1---1-1-1-1-1---1-1-1-1-0---0-0-0-0-------------|
D|-0-----------0-----------0---------------5-------------------------------------------0-----------|
A|-------------------------------------------------------------------------------------------------|
   1 + 2 + 3 + 4 + 5 + 6 + 1 + 2 + 3 + 4 + 5 + 6 + 1 + 2 + 3 + 4 + 5 + 6 + 1 + 2 + 3 + 4 + 5 + 6 +

Bridge 2:25   1 + 2 + 3 + = 1 + 2 + 3 +
G|-------------------------------------------------------------------------------------------------|
D|-------------------------------------------------------------------------------------------------|
A|-------------------------------------------------------------------------1-1-1-1-1-1-0-0-1-1-0-0-|
D|-0-0-0-0-0-0-0-0-----0-0-2-2-2-2-2-2-2-2-0-0-2-2-3-3-3-3-3-3-3-3-2-2-3-3-------------------------|
A|-----------------4-4-----------------------------------------------------------------------------|
   1 + 2 + 3 + 4 + 5 + 6 + 1 + 2 + 3 + 4 + 5 + 6 + 1 + 2 + 3 + 4 + 5 + 6 + 1 + 2 + 3 + 4 + 5 + 6 + 

G|-------------------------------------------------------------------------------------------------|
D|-5-5-5-5-5-5-5-5-3-3-5-5-7-7-7-7-7-7-7-7-5-5-7-7-8-8-8-8-8-8-8-----------10----------8-----------|
A|-------------------------------------------------------------------------------------------------|
D|-------------------------------------------------------------------------------------------------|
A|-------------------------------------------------------------------------------------------------|
   1 + 2 + 3 + 4 + 5 + 6 + 1 + 2 + 3 + 4 + 5 + 6 + 1 + 2 + 3 + 4 + 5 + 6 + 1 + 2 + 3 + 4 + 5 + 6 + 

G|-------------------------------------------------|
D|-------------------------------------------------|
A|-0-----------------------------------------------|
D|-------------------------------------------------|
A|-------------------------------------------------|
   1 + 2 + 3 + 4 + 5 + 6 + 1 + 2 + 3 + 4 + 5 + 6 + 

Rest

Outro Chorus 2:50   Repeat till fade out
G|-------------------------------------------------------------------------------------------------|
D|-------------------------------------------------------------------------------------------------|
A|---------------------------------------------0---1-----------1-----------0-----------0-----------|
D|-0-----------0-----------0-----------0---5-----------------------------------------------3---2---|
A|-------------------------------------------------------------------------------------------------|
   1 + 2 + 3 + 4 + 5 + 6 + 1 + 2 + 3 + 4 + 5 + 6 + 1 + 2 + 3 + 4 + 5 + 6 + 1 + 2 + 3 + 4 + 5 + 6 + 
Tabbed by Dave Vucko
Добавлено: 11.07.2015
Другие материалы по этой песне:
  • Аккорды и текст

Страница создана 11.07.2015
http://primanota.ru/get-scared/dance-with-dead-chords.htm
Привет, Гость.
Предлагаем пройти революционный курс по гитаре.
Подарок от PrimaNota.Ru, забирай!