PrimaNota.ru - самый крупный в мире бесплатный архив песенных текстов, аккордов, табулатур и нот


Get Scared - Buried Alive - таба, видео

Регистрация Запомнить меня
Войти через:  Facebook Google Twitter Vk Yandex Mail.ru

Get Scared - Buried Alive - таба, видео

Печатать
Просмотров: 97
Title: Buried Alive
Artist: Get Scared
Album: Demons

Legend
L - tied note
x - dead note
h - hammer on/pull off
b - bend
s - slide
~ - vibrato
g - ghost note
> - accentuated note
t - trill
M - palm mute
. - staccato
P - popping (bass)
S - slapping (bass)
+ - tapping
W - wide vibrato
< - fade in
w - whammy bar
= - tremolo picking
v - brush up
^ - brush down
V - pick stroke up
n - pick stroke down


ORDER OF TAB RIFFS:
1.) Intro
2.) Verse(s)
3.) Chorus(s)
4.) Post-Chorus 1
5.) Post-Chorus 2



INTRO:

C |----------------------------------------|-------|
G |----------------------------------------|-------|
D#|----------------------------------------|-------|
A#|--2--------3--------0-------------------|-------|
F |--2--------3--------0-------------------|-------|
A#|--2--------3--------0-------------------|-------|

                                         
----------------------------------------|
----------------------------------------|
----------------------------------------|
--2--------3--------1-----1M----1M------|
--2--------3--------1-----1M----1M------|
--2--------3--------1-----1M----1M------|

                                         
----------------------------------------|
----------------------------------------|
----------------------------------------|
--2--------3--------0-------------------|
--2--------3--------0-----3-------------|
--2--------3--------0-----------5-------|

                                         
----------------------------------------|
----------------------------------------|
----------------------------------------|
--2--------3--------1-----1M----1M------|
--2--------3--------1-----1M----1M------|
--2--------3--------1-----1M----1M------|

                                         
----------------------------------------|
----------------------------------------|
----------------------------------------|
--2--------3--------0-------------------|
--2--------3--------0-----5-------------|
--2--------3--------0-----------5-------|

                                         
----------------------------------------|
----------------------------------------|
----------------------------------------|
--2--------3--------1-----1M----1M------|
--2--------3--------1-----1M----1M------|
--2--------3--------1-----1M----1M------|

                                         
----------------------------------------|
----------------------------------------|
----------------------------------------|
--2--------3--------0-------------------|
--2--------3--------0-----3-------------|
--2--------3--------0-----------5-------|

                                         
----------------------------------------|
----------------------------------------|
----------------------------------------|
--2--------3--------1-----1M----1M------|
--2--------3--------1-----1M----1M------|
--2--------3--------1-----1M----1M------|

                                               
----------------------------------------|
----------------------------------------|
----------------------------------------|
--2--------3----------------------------|
--2--------3--------3-----2-------------|
--2--------3--------------------5-------|




VERSE: (0:19-0:34 & 1:15-1:30)

  =                                                    =     
----------------------------------------------------|-------|
----------------------------------------------------|-------|
----------------------------------------------------|-------|
----------------------------------------------------|-------|
----------------------------------------------------|-------|
--7-----------------------3--3--3--7--7--7--3--3----|--7----|

  =                                                    =     
----------------------------------------------------|-------|
----------------------------------------------------|-------|
----------------------------------------------------|-------|
----------------------------------------------------|-------|
----------------------------------------------------|-------|
--7-----------------------3--3--3--7--7--7--5--5----|--3----|

  =                                                    =     
----------------------------------------------------|-------|
----------------------------------------------------|-------|
----------------------------------------------------|-------|
----------------------------------------------------|-------|
----------------------------------------------------|-------|
--3-----------------------2--2--2--3--3--3--2--2----|--3----|

                                                     
----------------------------------------------------|
----------------------------------------------------|
----------------------------------------------------|
--5-----5M-5M-5M-5M-5M-5M-5-------------------------|
--5-----5M-5M-5M-5M-5M-5M-5-------------------------|
--5-----5M-5M-5M-5M-5M-5M-5-------------------------|



CHORUS: 

----------------------------|----------------------------|
----------------------------|----------------------------|
----------------------------|----------------------------|
--7--7--7--7--7--7--7--7----|--2--2--2--2--2--2--2--2----|
--7--7--7--7--7--7--7--7----|--2--2--2--2--2--2--2--2----|
--7--7--7--7--7--7--7--7----|--2--2--2--2--2--2--2--2----|

                                                          
----------------------------|----------------------------|
----------------------------|----------------------------|
----------------------------|----------------------------|
--3--3--3--3--3--3--3--3----|--3--3--3--3--3--3--3--3----|
--3--3--3--3--3--3--3--3----|--3--3--3--3--3--3--3--3----|
--3--3--3--3--3--3--3--3----|--3--3--3--3--3--3--3--3----|

                                                          
----------------------------|----------------------------|
----------------------------|----------------------------|
----------------------------|----------------------------|
--7--7--7--7--7--7--7--7----|--2--2--2--2--2--2--2--2----|
--7--7--7--7--7--7--7--7----|--2--2--2--2--2--2--2--2----|
--7--7--7--7--7--7--7--7----|--2--2--2--2--2--2--2--2----|

                                                          
----------------------------|----------------------------|
----------------------------|----------------------------|
----------------------------|----------------------------|
--3--3--3--3--3--3--3--3----|--5--5--5--5--5--5--5--5----|
--3--3--3--3--3--3--3--3----|--5--5--5--5--5--5--5--5----|
--3--3--3--3--3--3--3--3----|--5--5--5--5--5--5--5--5----|

                                                     
----------------------------------------------------|
----------------------------------------------------|
----------------------------------------------------|
--3--------3--------3-----3--------3--------3-------|
--3--------3--------3-----3--------3--------3-------|
--3--------3--------3-----3--------3--------3-------|

                                                     
----------------------------------------------------|
----------------------------------------------------|
----------------------------------------------------|
--5--------5--------5-----5--------5--------5-------|
--5--------5--------5-----5--------5--------5-------|
--5--------5--------5-----5--------5--------5-------|

                                                     
----------------------------------------------------|
----------------------------------------------------|
----------------------------------------------------|
----------------------------------------------------|
----------------------------------------------------|
--7-----7M-7-----7M-10----7-----7-----7M-7M-10------|

                   =       =                         
----------------------------------------------------|
----------------------------------------------------|
----------------------------------------------------|
--------------------------5-----5-----5M-5M-5-------|
--------------------------5-----5-----5M-5M-5-------|
--7-----7M-7-----7M-10----5-----5-----5M-5M-5-------|

                           =       =                 
----------------------------------------------------|
----------------------------------------------------|
----------------------------------------------------|
--3--------3--------3-----3--------3--------3-------|
--3--------3--------3-----3--------3--------3-------|
--3--------3--------3-----3--------3--------3-------|

                                   =       =         
----------------------------------------------------|
----------------------------------------------------|
----------------------------------------------------|
--5--------5--------5-----5--------5--------5-------|
--5--------5--------5-----5--------5--------5-------|
--5--------5--------5-----5--------5--------5-------|

                                           =
----------------------------------------------------|
----------------------------------------------------|
----------------------------------------------------|
----------------------------------------------------|
----------------------------------------------------|
--2-----2--2-----2--2-----2-----2-----2--2--2-------|


----------------------------------------------------|
----------------------------------------------------|
----------------------------------------------------|
----------------------------------------------------|
----------------------------------------------------|
--2-----2--2-----2--2-----2-------------------------|




POST-CHORUS 1: (1:04-1:16)

----------------------------------------|
----------------------------------------|
----------------------------------------|
--2--------3--------1-----1M----1M------|
--2--------3--------1-----1M----1M------|
--2--------3--------1-----1M----1M------|


----------------------------------------|
----------------------------------------|
----------------------------------------|
--2--------3--------0-------------------|
--2--------3--------0-----3-------------|
--2--------3--------0-----------5-------|


----------------------------------------|
----------------------------------------|
----------------------------------------|
--2--------3--------1-----1M----1M------|
--2--------3--------1-----1M----1M------|
--2--------3--------1-----1M----1M------|


--------------------x--x--x--x--x--x----|
--------------------x--x--x--x--x--x----|
--------------------x--x--x--x--x--x----|
--2--------3--------x--x--x--x--x--x----|
--2--------3--------x--x--x--x--x--x----|
--2--------3--------x--x--x--x--x--x----|


----------------------------------------|
----------------------------------------|
----------------------------------------|
--2--------3--------1-----1M----1M------|
--2--------3--------1-----1M----1M------|
--2--------3--------1-----1M----1M------|


----------------------------------------|
----------------------------------------|
----------------------------------------|
--2--------3--------0-------------------|
--2--------3--------0-----3-------------|
--2--------3--------0-----------5-------|


----------------------------------------|
----------------------------------------|
----------------------------------------|
--2--------3--------1-----1M----1M------|
--2--------3--------1-----1M----1M------|
--2--------3--------1-----1M----1M------|


----------------------------------------|
----------------------------------------|
----------------------------------------|
--2--------3----------------------------|
--2--------3--------3-----2-------------|
--2--------3--------------------5-------|



POST-CHORUS 2 (After the bass interlude): (2:08-2:23)

----------------------------------------------------|
----------------------------------------------------|
----------------------------------------------------|
--2--------3--------1-----2--------3--------0-------|
--2--------3--------1-----2--------3--------0-------|
--2--------3--------1-----2--------3--------0-------|


----------------------------------------------------|
----------------------------------------------------|
----------------------------------------------------|
--------0-----------0M-0M-------0M-0M-------0M-0M---|
--------0-----------0M-0M-7-----0M-0M-8-----0M-0M---|
--------0-----------0M-0M-------0M-0M-------0M-0M---|


----------------------------------------------------|
----------------------------------------------------|
----------------------------------------------------|
--2--------3--------1-----2--------3--------0-------|
--2--------3--------1-----2--------3--------0-------|
--2--------3--------1-----2--------3--------0-------|


----------------------------------------------------|
----------------------------------------------------|
--9--9--9--9--9--9--9--9--5--5--5--5--4--4--4--4----|
--x--x--x--x--x--x--x--x--x--x--x--x--x--x--x--x----|
--7--7--7--7--7--7--7--7--3--3--3--3--2--2--2--2----|
----------------------------------------------------|


----------------------------------------------------|
----------------------------------------------------|
----------------------------------------------------|
--------------------------2--------3--------1-------|
--------------------------2--------3--------1-------|
--------------------------2--------3--------1-------|


----------------------------------------------------|
----------------------------------------------------|
----------------------------------------------------|
--------0-----------0-----3--3--------2--2----------|
--------0-----------0-----3--3--------2--2----------|
--------0-----------0-----3--3--------2--2----------|


----------------------------------------------------|
----------------------------------------------------|
----------------------------------------------------|
----------------------------------------------------|
----------------------------------------------------|
--3--3-----3-----3--3--3--3--3-----3-----3--3--3----|


----------------------------------------------------|
----------------------------------------------------|
----------------------------------------------------|
--5-----5M-5M-5M-5M-5M-5M-5-------------------------|
--5-----5M-5M-5M-5M-5M-5M-5-------------------------|
--5-----5M-5M-5M-5M-5M-5M-5-------------------------|
Добавлено: 13.06.2016
Другие материалы по этой песне:

Страница создана 13.06.2016
http://primanota.ru/get-scared/buried-alive-chords.htm
Привет, Гость.
Предлагаем пройти революционный курс по гитаре.
Подарок от PrimaNota.Ru, забирай!