PrimaNota.ru - самый крупный в мире бесплатный архив песенных текстов, аккордов, табулатур и нот


Get Dead - This Ones For Johnny - таба, видео

Регистрация Запомнить меня
Войти через:  Facebook Google Twitter Vk Yandex Mail.ru

Get Dead - This Ones For Johnny - таба, видео

Печатать
Просмотров: 100
Уроки эстрадного вокала в Санкт-Петербурге
-------------------------------------------------------------------------------
                             This One's For Johnny - Get Dead
-------------------------------------------------------------------------------
Tabbed by: squintyjoefan
E-mail: squintyjoefan@hotmail.co.uk

Band details can be found at:
http://getdead.bandcamp.com/

Video at: 
http://www.youtube.com/watch?v=gvecJe0Abt0



Tuning: EADGBE

Intro/Verse/Chorus Chords
e|---------------------------------------------------------------------------|
B|---------------------------------------------------------------------------|
G|--6--------------------6---------------------------------------------------|
D|--6------6------4------6---------------------------------------------------|
A|--4------6------4------4---------------------------------------------------|
E|---------4------2----------------------------------------------------------|

    C#5   G#5    F#5    C#5

2nd Guitar can play the whole barre version of these chords

Strum Pattern:  DU  DUD U  DUD U  DUD U DU [change chord and repeat]

This strum pattern is used throught the whole song



Post Chorus
e|---------------------------------------------------------------------------|
B|---------------------------------------------------------------------------|
G|--6---------------------------6--------------------------------------------|
D|--6-----6------3------4-------6-----6-----4--------------------------------|
A|--4-----6------3------4-------4-----6-----4--------------------------------|
E|--------4------1------2-------------4-----2--------------------------------|

   C#5   G#5     F      F#5    C#5   G#5   F#5


Solo

e|---------------9-------9-------9----------11---------11----------11--------|
B|---------------------------------------------------------------------------|
G|--6--8-----6-------6-------6----------8---------8---------8----------------|
D|---------------------------------------------------------------------------|
A|---------------------------------------------------------------------------|
E|---------------------------------------------------------------------------|

e|-------13-----------13-----------13------13--13--13131313----11---9---9----|
B|---------------------------------------------------------------------------|
G|--10----------10----------10-----------------------------------------------|
D|---------------------------------------------------------------------------|
A|---------------------------------------------------------------------------|
E|---------------------------------------------------------------------------|
                                              These are 13's

e|---------------------------------------------------------------------------|
B|-----------9---------------------------------------------------------------|
G|--6---6/8----10---8----10b12-----8-----(6)---------------------------------|
D|---------------------------------------------------------------------------|
A|---------------------------------------------------------------------------|
E|---------------------------------------------------------------------------|
       slow slide        slow bend


e|----------------------------------------------------------------------9----|
B|-----------9------9/11----9----11---9------9---9/11---13----11---9---------|
G|--6---6/8------------------------------------------------------------------|
D|---------------------------------------------------------------------------|
A|---------------------------------------------------------------------------|
E|---------------------------------------------------------------------------|

e|-------9-----11----9-------------------------------------------------------|
B|--9------------------------------------------------------------------------|
G|---------------------------------------------------------------------------|
D|---------------------------------------------------------------------------|
A|---------------------------------------------------------------------------|
E|---------------------------------------------------------------------------|


Post Solo Chords 
e|---------------------------------------------------------------------------|
B|---------------------------------------------------------------------------|
G|---6-----------------------------------------------------------------------|
D|---6-------6------4------6-------------------------------------------------|
A|---4-------6------4------6-------------------------------------------------|
E|-----------4------2------4-------------------------------------------------|

    C#5     G#5    F#5    G#5

Outro Chords

e|---------------------------------------------------------------------------|
B|---------------------------------------------------------------------------|
G|---6-----------------------------------------------------------------------|
D|---6----6----3---4-------8-----6------4~-----------------------------------|
A|---4----6----3---4-------8-----6------4~-----------------------------------|
E|--------4----1---2-------6-----4------2~-----------------------------------|

    C#5  G#5   F5 F#5     A#5   G#5    F#5 (let ring)


************************************

| /   slide up
| \   slide down
| h   hammer-on
| p   pull-off
| ~   vibrato
| +   harmonic
| x   Mute note
| b   Bend
| pb  Pre-bend
| br  Bend release
| pbr Pre-bend release
| brb Bend release bend

************************************
Добавлено: 09.06.2013
Другие материалы по этой песне:
  • Аккорды и текст

Страница создана 09.06.2013
http://primanota.ru/get-dead/this-ones-for-johnny-chords.htm
Привет, Гость.
Предлагаем пройти революционный курс по гитаре.
Подарок от PrimaNota.Ru, забирай!