PrimaNota.ru - самый крупный в мире бесплатный архив песенных текстов, аккордов, табулатур и нот


Get Cape Wear Cape Fly - Open Your Eyes - таба, видео

Регистрация Запомнить меня
Войти через:  Facebook Google Twitter Vk Yandex Mail.ru

Get Cape Wear Cape Fly - Open Your Eyes - таба, видео

Печатать
Просмотров: 159
I am not so sure, I tabbed this in mere seconds of hearing the song, may or may not be accurate.


Standard Tuning


e------------         e--------------|
B------------         B--------------|
G---3--------         G--------3-----|
D--------3---         D------------3-|
A------------         A-----/6---6---|
E-3----3----- x2      E-3-3----------|  x 2
repeat both of these then:


e---------------------------------|
B------------------3--3-4-3---4-3-|
G---3-2-3-2-3/5/3---3-------3-----|
D---------------------------------|
A---------------------------------|
E-3*-(3)----------3---------------|

that is somewhat similar??? I will tab this in full and accurate later.

questions/comments and such: dfilms2008@yahoo.com
Добавлено: 07.04.2012
Вам также может быть интересно:
Другие материалы по этой песне:
  • Аккорды и текст

Страница создана 26.02.2012
http://primanota.ru/get-cape-wear-cape-fly/open-your-eyes-chords.htm
Привет, Гость.
Предлагаем пройти революционный курс по гитаре.
Подарок от PrimaNota.Ru, забирай!