PrimaNota.ru - самый крупный в мире бесплатный архив песенных текстов, аккордов, табулатур и нот


Get Cape Wear Cape Fly - Lighthouse Keeper - текст песни, таба, видео

Регистрация Запомнить меня
Войти через:  Facebook Google Twitter Vk Yandex Mail.ru

Get Cape Wear Cape Fly - Lighthouse Keeper - текст песни, таба, видео

Печатать
Просмотров: 122
Уроки эстрадного вокала в Санкт-Петербурге
Tabbed by: Ian Morrison
Email: Mozzay@hotmail.com

Tuning: Standard

Capo on 2

i know its not perfect but i think it is pretty much there. this is baisicly the intro, 
it carries on through the whole song with just a few changes during verse and chorus.
thanks to ryan for getting me started on this
any comments welcome

e|------0---------------0-------------0----------------------------------|
B|--------1---1-----------1---1---------1---1--3--1--0-------------------|
G|----0-----0---------0-----0-------0-----0------------------------------|
D|-----------------------------------------------------------------------|
A|--3-------------0h2-------------0--------------------------------------|
E|---------------------------------------------3--3--3-------------------|

e|-----------------------------------------------------------------------|
B|-----1-----------1------1--0--1--3---3---------------------------------|
G|-------0---0-------0-------------------0-------------------------------|
D|---0-----0-----0-----0-------------0-----0-----------------------------|
A|-----------------------------------------------------------------------|
E|-1-----------0----------1--0--1--3-------------------------------------|

e|------0---------------0-------------0----------------------------------|
B|--------1---1-----------1---1---------1---1--3--1--0-------------------|
G|----0-----0---------0-----0-------0-----0------------------------------|
D|-----------------------------------------------------------------------|
A|0h3-------------0h2-------------0--------------------------------------|
E|---------------------------------------------3--3--3-------------------|

e|-----------------------------------------------------------------------|
B|-----1-----------1------1--0--1--3---3---------------------------------|
G|-------0---0-------0-------------------0-------------------------------|
D|---0-----0-----0-----0-------------0-----0-----------------------------|
A|-----------------------------------------------------------------------|
E|-1-----------0----------1--0--1--3-------------------------------------|

e|-----------------------------------------------------------------------|
B|-----1-----------1-----------3-----------3-----------------------------|
G|-------0---0-------0---0-------0---0-------0---0-----------------------|
D|---0-----0-----0-----0-----0-----0-----0-----0-------------------------|
A|-----------------------------------------------------------------------|
E|-1-----------1-----------3-----------3---------------------------------|

e|------0---------------0-------------0----------------------------------|
B|--------1---1-----------1---1---------1---1--3--1--0-------------------|
G|----0-----0---------0-----0-------0-----0------------------------------|
D|-----------------------------------------------------------------------|
A|0h3-------------0h2-------------0--------------------------------------|
E|---------------------------------------------3--3--3-------------------|

e|-----------------------------------------------------------------------|
B|-----1-----------1-----------3-------1---3-----------------------------|
G|-------0---0-------0---0-------0---0-----------------------------------|
D|---0-----0-----0-----0-----0-----0-------------------------------------|
A|-----------------------------------------------------------------------|
E|-1-----------1-----------3-----------1---3-----------------------------|
Добавлено: 25.05.2012
Другие материалы по этой песне:

Страница создана 10.04.2012
http://primanota.ru/get-cape-wear-cape-fly/lighthouse-keeper-chords.htm
Привет, Гость.
Предлагаем пройти революционный курс по гитаре.
Подарок от PrimaNota.Ru, забирай!