PrimaNota.ru - самый крупный в мире бесплатный архив песенных текстов, аккордов, табулатур и нот


Get Cape Wear Cape Fly - Chronicles Of A Bohemian Teenager - таба, видео

Регистрация Запомнить меня
Войти через:  Facebook Google Twitter Vk Yandex Mail.ru

Get Cape Wear Cape Fly - Chronicles Of A Bohemian Teenager - таба, видео

Печатать
Просмотров: 151
-------------------------
Get Cape. Wear Cape. Fly
-------------------------

i havent figured out the intro yet, so if anyone has please post!

Capo on 4th:
relative to capo
listen to song to figure out strumming pattern

e|--7----x---|
B|--0----7---|
G|--0----0---|
D|--5----5---| x2 then
A|--7----7---|
E|--0----0---|

e|--3----0---|
B|--0----3---|
G|--0----0---|
D|--2----2---| x2
A|--3----3---|
E|--0----0---|

repeat how ever many times


Then the prechorus bit goes like this, im pretty sure. 
slide up into each chord

e|--3----5---|
B|--0----0---|
G|--0----0---| x3 then
D|--2----4---|
A|--3----5---|
E|--0----0---|

e|--5---7----|
B|--0---0----|
G|--0---0----|
D|--4---5----|
A|--5---7----|
E|--0---0----|

Then the chorus goes like this

e|--3---3---7---3--|
B|--0---0---0---0--|
G|--0---0---0---0--|
D|--0---2---5---2--|
A|--2---0---7---3--|
E|--3---0---0---0--|

Ignore my comment, this tab has been updated

please rate
Добавлено: 25.04.2012
Другие материалы по этой песне:
  • Аккорды и текст

Страница создана 25.04.2012
http://primanota.ru/get-cape-wear-cape-fly/chronicles-of-a-bohemian-teenager-chords.htm
Привет, Гость.
Предлагаем пройти революционный курс по гитаре.
Подарок от PrimaNota.Ru, забирай!