PrimaNota.ru - самый крупный в мире бесплатный архив песенных текстов, аккордов, табулатур и нот


Get Cape Wear Cape Fly - Call Me Ishmeal - таба, видео

Регистрация Запомнить меня
Войти через:  Facebook Google Twitter Vk Yandex Mail.ru

Get Cape Wear Cape Fly - Call Me Ishmeal - таба, видео

Печатать
Просмотров: 97
Please comment if wrong

Capo 4th
relative to capo

Intro/Slow Verse

e|--------------------------------------------|
B|-------0----0----0--------------------------|
G|--------0----0----0-------2------4-2-0h2p0--| 
D|-----0--------------0----0-0----------------|  
A|---------------------------------5-4-2------|   
E|--3-------3----3-------2----2---------------|    
                                                      X4            
e|--------------------------------------------|
B|--------------------------------------------|
G|-------2---2---2-------0------5-4-2p0-------|
D|--------0---0---0-----0-0------------0------|
A|-----2---2---2---2------------5-4-2---------|
E|--(3)---------------0----0------------------|



Slow Chrous

e|-------------------------------------------------------|
B|-------3-------3-------3---------5-------5-------5-----|
G|--------0-------0-------0---------0-------0-------4----|   X8
D|-----2-------2-------2---------4-------4-------4-------|
A|--3-------3-------3-------3/5-------5-------5-------5--|
E|-------------------------------------------------------|



Repeat Intro/Slow Verse

Repeat Slow Chrous


--------
Fast Bit
--------


Fast Verse

    1 + 2 + 3 + 4 + 1 + 2 + 3 + 4 + 1 + 2 + 3 + 4 + 1 + 2 + 3 + 4 +
e|--3---3-3---3-3-3-3---3-3---3-3-3-2---2-2---2-2-2-3---3-3---3-3-3--|
B|--3---3-3---3-3-3-3---3-3---3-3-3-3---3-3---3-3-3-3---3-3---3-3-3--|
G|--0---0-0---0-0-0-2---2-2---2-2-2-4---4-4---4-4-4-0---0-0---0-0-0--|
D|--0---0-0---0-0-0-2---2-2---2-2-2-4---4-4---4-4-4-2---2-2---2-2-2--|
A|--2---2-2---2-2-2-0---0-0---0-0-0-2---2-2---2-2-2-3---3-3---3-3-3--|
E|--3---3-3---3-3-3--------------------------------------------------|


Fast Chrous

(A)

    1 + 2 + 3 + 4 + 1 + 2 + 3 + 4 +
e|--2---2-2---2-2-2-3---3-3---3-3-3--|
B|--3---3-3---3-3-3-3---3-3---3-3-3--|
G|--4---4-4---4-4-4-0---0-0---0-0-0--|   X3 then
D|--4---4-4---4-4-4-2---2-2---2-2-2--|
A|--2---2-2---2-2-2-3---3-3---3-3-3--|
E|-----------------------------------|

(B)

e|--2---------------0----------------|
B|--3---------------1----------------|
G|--4---------------2----------------|
D|--4---------------2----------------|
A|--2---------------0----------------|
E|-----------------------------------|


Repeat (A) and play (C)

e|--2-------2-------0----------------|
B|--3-------3-------1----------------|
G|--4-------4-------2----------------|
D|--4-------4-------2----------------|
A|--2-------2-------0----------------|
E|-----------------------------------|


Repeat Fast Verse

Repeat Fast Chrous
Добавлено: 11.07.2012
Другие материалы по этой песне:
  • Аккорды и текст

Страница создана 11.07.2012
http://primanota.ru/get-cape-wear-cape-fly/call-me-ishmeal-chords.htm
Привет, Гость.
Предлагаем пройти революционный курс по гитаре.
Подарок от PrimaNota.Ru, забирай!