PrimaNota.ru - самый крупный в мире бесплатный архив песенных текстов, аккордов, табулатур и нот


Get Cape Wear Cape Fly - Call Me Ishmael - таба, видео

Регистрация Запомнить меня
Войти через:  Facebook Google Twitter Vk Yandex Mail.ru

Get Cape Wear Cape Fly - Call Me Ishmael - таба, видео

Печатать
Просмотров: 146
============================================
Get Cape. Wear Cape. Fly - Call me Ishmael
============================================

Well i thought id have a crack at this since no one else has.
The intro is also used for basically all the verse until the chorus begins.

Capo 4th
relative to capo

e|--------------------------------------------|
B|-------0----0----0--------------------------|
G|--------0----0----0-------2------4-2-0h2p0--|
D|-----0--------------0----0-0----------------| 
A|---------------------------------5-4-2------|
E|--3-------3----3-------2----2---------------|

e|--------------------------------------------|
B|--------------------------------------------|
G|-------2---2---2-------0------5-4-2p0-------|
D|--------0---0---0-----0-0------------0------|
A|-----2---2---2---2------------5-4-2---------|
E|--(3)---------------0----0------------------|

Repeat all however many times

It sounds good to me, hope it helps.
Any corrections, please let me know!
Добавлено: 08.07.2012
Другие материалы по этой песне:
  • Аккорды и текст

Страница создана 14.05.2012
http://primanota.ru/get-cape-wear-cape-fly/call-me-ishmael-chords.htm
Привет, Гость.
Предлагаем пройти революционный курс по гитаре.
Подарок от PrimaNota.Ru, забирай!