PrimaNota.ru - самый крупный в мире бесплатный архив песенных текстов, аккордов, табулатур и нот


Gesu No Kiwami - I Forgot The Light - таба, видео

Регистрация Запомнить меня
Войти через:  Facebook Google Twitter Vk Yandex Mail.ru

Gesu No Kiwami - I Forgot The Light - таба, видео

Печатать
Просмотров: 69
Уроки эстрадного вокала в Санкт-Петербурге
gesu no kiwami - I forgot the light

Piano intro

e|-------------------------|
b|----------------13-10----|
G|-10p9--10p9--9---------9-|
D|-------------------------| x7
A|-------------------------|
E|-------------------------|

e|---------------------------------------|
b|---------------------------------------|
G|-10p9----------------------------------|
D|------12p10----------------------12-10-|
A|------------12p10-------10h11h12-------|
E|------------------13p12----------------|

No guitar for a while

e|---------------------------------------------------------|
b|-10-10-8--8--8-8--10-10-8--8--8-8--5-5-3-3-33-5-5-3-3-33-|
G|-9--9--9--9--9-9--9--9--9--9--9-9--4-4-4-4-44-4-4-4-4-44-| 
D|-10-10-10-10-1010-10-10-10-10-1010-5-5-5-5-55-5-5-5-5-55-| 
A|-8--8--8--8--8-8--8--8--8--8--8-8--3-3-3-3-33-3-3-3-3-33-|
E|---------------------------------------------------------|

e|---------------------------------------------------------|
b|-10-10-8--8--8-8--10-10-8--8--8-8--5-5-3-3-33-5----------|
G|-9--9--9--9--9-9--9--9--9--9--9-9--4-4-4-4-44-4----------| 
D|-10-10-10-10-1010-10-10-10-10-1010-5-5-5-5-55-5----------| 
A|-8--8--8--8--8-8--8--8--8--8--8-8--3-3-3-3-33-3----------|
E|---------------------------------------------------------|

e|-------------------------|
b|----------------13-10----|
G|-10p9--10p9--9---------9-|
D|-------------------------| x7
A|-------------------------|
E|-------------------------|

e|---------------------------------------|
b|---------------------------------------|
G|-10p9----------------------------------|
D|------12p10----------------------12-10-|
A|------------12p10-------10h11h12-------|
E|------------------13p12----------------|

e|---------------------------------------------------------------------------|
b|---------------------------------------------------------------------------|
G|-----------13BU13BU----10-9-7----------------10--12-10----------11BU--13BU-|
D|-/22--------------------------9-10-----10h12-----------12-10h12------------|
A|---------------------------------------------------------------------------|
E|---------------------------------------------------------------------------|

e|--------------------------|
b|--------------12h13p12----|
G|-------10h12-----------12-|
D|-10h12--------------------| x8
A|--------------------------|
E|--------------------------|

No guitar

e|---------------------------------------------------------|
b|-10-10-8--8--8-8--10-10-8--8--8-8--5-5-3-3-33-5-5-5-5-55-|
G|-9--9--9--9--9-9--9--9--9--9--9-9--4-4-4-4-44-4-4-4-4-44-| 
D|-10-10-10-10-1010-10-10-10-10-1010-5-5-5-5-55-5-5-5-5-55-| x2
A|-8--8--8--8--8-8--8--8--8--8--8-8--3-3-3-3-33-3-3-3-3-33-|
E|---------------------------------------------------------|

e|----------------|
b|-10--10--3--5-3-|
G|-9---9---4--4-4-|
D|-10--10--5--5-5-| x11
A|-8---8---3--3-3-|
E|----------------|

e|-------------------------|
b|-10--10--3-3-3-3-3-3-3-3-|
G|-9---9---4-4-4-4-4-4-4-4-|
D|-10--10--5-5-5-5-5-5-5-5-|
A|-8---8---3-3-3-3-3-3-3-3-|
E|-------------------------|

e|---------------------------------------------------------------------------------|
b|-10-10-10-10-10-10-10-10-8--8--8--8--8--8--8--8--5-5-5-5-5-5-5-5-3-3-3-3-3-3-3-3-|
G|-9--9--9--9--9--9--9--9--9--9--9--9--9--9--9--9--4-4-4-4-4-4-4-4-4-4-4-4-4-4-4-4-|
D|-10-10-10-10-10-10-10-10-10-10-10-10-10-10-10-10-5-5-5-5-5-5-5-5-5-5-5-5-5-5-5-5-|
A|-8--8--8--8--8--8--8--8--8--8--8--8--8--8--8--8--3-3-3-3-3-3-3-3-3-3-3-3-3-3-3-3-|
E|---------------------------------------------------------------------------------|

e|-------------------------------------------------------------------|
b|-10-10-10-10-10-10-10-10-8--8--8--8--8--8--8--8--5--------3--------|
G|-9--9--9--9--9--9--9--9--9--9--9--9--9--9--9--9--4--------4--------|
D|-10-10-10-10-10-10-10-10-10-10-10-10-10-10-10-10-5--------5--------|
A|-8--8--8--8--8--8--8--8--8--8--8--8--8--8--8--8--3--------3--------|
E|-------------------------------------------------------------------|

No guitar

e|-------------------------|
b|-10--10--3-3-3-3-3-3-3-3-|
G|-9---9---4-4-4-4-4-4-4-4-|
D|-10--10--5-5-5-5-5-5-5-5-|
A|-8---8---3-3-3-3-3-3-3-3-|
E|-------------------------|

e|---------------------------------------------------------|
b|-10-10-8--8--8-8--10-10-8--8--8-8--5-5-3-3-33-5-5-3-3-33-|
G|-9--9--9--9--9-9--9--9--9--9--9-9--4-4-4-4-44-4-4-4-4-44-| 
D|-10-10-10-10-1010-10-10-10-10-1010-5-5-5-5-55-5-5-5-5-55-| 
A|-8--8--8--8--8-8--8--8--8--8--8-8--3-3-3-3-33-3-3-3-3-33-|
E|---------------------------------------------------------|

e|---------------------------------------------------------|
b|-10-10-8--8--8-8--10-10-8--8--8-8--5-5-3-3-33-5----------|
G|-9--9--9--9--9-9--9--9--9--9--9-9--4-4-4-4-44-4----------| 
D|-10-10-10-10-1010-10-10-10-10-1010-5-5-5-5-55-5----------| 
A|-8--8--8--8--8-8--8--8--8--8--8-8--3-3-3-3-33-3----------|
E|---------------------------------------------------------|

e|-------------------------|
b|----------------13-10----|
G|-10p9--10p9--9---------9-|
D|-------------------------| x8
A|-------------------------|
E|-------------------------|
Добавлено: 05.12.2015
Другие материалы по этой песне:
  • Аккорды и текст

Страница создана 05.12.2015
http://primanota.ru/gesu-no-kiwami/i-forgot-light-chords.htm
Привет, Гость.
Предлагаем пройти революционный курс по гитаре.
Подарок от PrimaNota.Ru, забирай!