PrimaNota.ru - самый крупный в мире бесплатный архив песенных текстов, аккордов, табулатур и нот


Gesu No Kiwami Otome - Rasuka - бас-таба, видео

Регистрация Запомнить меня
Войти через:  Facebook Google Twitter Vk Yandex Mail.ru

Gesu No Kiwami Otome - Rasuka - бас-таба, видео

Печатать
Просмотров: 72
* = harmonic

G|------------------------------------------------------------------------|
D|------------------------------------------------------------------------|
A|-8-8-----7-7------3-3-----7-7-----8-8------7-7------3-3--3-5-5--5-7--/8-|
E|------------------------------------------------------------------------|

G|--------------------------|
D|--------------------------|
A|-8-8---7-7---5-5---7-7----| x2
E|--------------------------|

G|------------------------------------------------------------------|
D|------------------------------------------------------------------|
A|-------15-------14-12-10------------12----------------------12-14-|
E|-/13--------12-----------10-12-10------10-1010-12--15-12-15-------|

G|---------------------------------------------------------------------|
D|---------------------------------------------------------------------|
A|------15-------14-12-10------------12--------------------------------|
E|-13--------12-----------10-12-10-10-10-10-10-10-10-10-12-12-12-12-12-|

G|--------------------------------------------------------------------14-12----|
D|-----------------------------------------------------------------14-------14-|
A|--------15-15--------------14-14-------------15-15------------12-------------| x2
E|-13--13-------13-13-12--12-------12-12-13--13-------13-13-12-----------------|

G|----------------------------------------------14--12--|
D|--------------------------------------12-14-----------|
A|------------------------------------------------------|
E|-13-13------12-12------10-10-----1212-----------------|

G|--------------------------------------------|
D|--------------------------------------------|
A|-3-5----7\--3-5----7\--3-5----7\--3-5----7\-| x4
E|--------------------------------------------|

G|-----------------------------------------------|
D|---------5---------------------9---7---5-------|
A|-5h7p5-0---0-7-0-5-0-2---5h7p5---5---5---5-7-5-| x7
E|-----------------------3-----------------------|

G|-------------------------------------------5*-|
D|---------5---------------------9---7---5------|
A|-5h7p5-0---0-7-0-5-0-2---5h7p5---5---5---5----| 
E|-----------------------3----------------------|

G|-------------------------------------------------------------------------------------------------|
D|-------------------------------------------------------------------------------------------------|
A|-------15--15----------------12----10----8---7---------12--12----------------12----10----8---7---| 
E|-13-13--------13-13-12h13h15----12----10---8---8-10-10--------10-10-12h13h15----12----10---8---8-|

G|-----------------------------------------------------------------------------------------------|
D|----------------------------------------------------------------------------------------14-----|
A|-------15--15----------------12----10----8---7---------------------------------------14-----14-| 
E|-13-13--------13-13-12h13h15----12----10---8---8-10-10-10-10-10-10-10-10-12-12-12-12-----------|

G|--------------------------------------------------------------------14-12----|
D|-----------------------------------------------------------------14-------14-|
A|--------15-15--------------14-14-------------15-15------------12-------------| x2
E|-13--13-------13-13-12--12-------12-12-13--13-------13-13-12-----------------|

G|--------------|
D|--------------|
A|-8-(ring out)-|
E|--------------|

G|---------------------------------------------------------------|
D|---------------------------------------------------------------|
A|------15---------14-12-10------------15---------1414-12--------|
E|-/13------13-12------------10-12-13------13-12-----------10-12-|

G|--------------------------------------------------------------------------|
D|--------------------------------------------------------------------------|
A|--------------------------------------------------------------------------|
E|-1-1-1-1-1-1-1-3-5-5-1-1-1-1-1-1-5-8--1-1-1-1-1-1-1-3-5-3-1-1-1-1-1-1-5-8-|

G|--------------|
D|--------------|
A|--------------|
E|-8-(ring out)-|

G|--------------------------------------------------------------------------------------------------|
D|--------------------------------------------------------------------------------------------------|
A|--------------------------------------------------------------------------------------------------|
E|-/13-13-13-13-13-13-13-13-12-12-12-12-12-12-12-12-10-10-10-10-10-10-10-10-12-12-12-12-12-12-12-12-|

G|--------------------------------------------------------------------------------------------------|
D|--------------------------------------------------------------------------------------------------|
A|--------------------------------------------------------------------------------------------------|
E|-13-13-13-13-13-13-13-13-12-12-12-12-12-12-12-12-10 (ring out)------------deaden note-------------|

G|--------------------------------------------------------------------14-12----|
D|-----------------------------------------------------------------14-------14-|
A|--------15-15--------------14-14-------------15-15------------12-------------| x2
E|-13--13-------13-13-12--12-------12-12-13--13-------13-13-12-----------------|

G|--------------------------------------------------------|
D|---------------------------------------------9-7-5------|
A|-8-8----8-------7-7----7------8-8----8-----7-------5--7-| x2
E|-----8------8-8-----7-----7-7-----8----8-8--------------|

G|--------------------------|
D|--------------------------|
A|-8-8---7-7---5-5---7-7----| x2
E|--------------------------|

Добавлено: 03.01.2016
Другие материалы по этой песне:
  • Аккорды и текст

Страница создана 03.01.2016
http://primanota.ru/gesu-no-kiwami-otome/rasuka-chords.htm
Привет, Гость.
Предлагаем пройти революционный курс по гитаре.
Подарок от PrimaNota.Ru, забирай!