PrimaNota.ru - самый крупный в мире бесплатный архив песенных текстов, аккордов, табулатур и нот


Gers Pardoel - We Missen Je - таба, видео

Регистрация Запомнить меня
Войти через:  Facebook Google Twitter Vk Yandex Mail.ru

Gers Pardoel - We Missen Je - таба, видео

Печатать
Просмотров: 81
Уроки эстрадного вокала в Санкт-Петербурге
-------------------------------------------------------------------------------
                  We missen je - Gers Pardoel (ft. Case Mayfield)
-------------------------------------------------------------------------------
One of my first tabs! It's just 4 standard chords. No capo.


        Dm            C            Gm7           Am
e|--------0--1----------0----------0--1----------0---------------------------|
B|-----3----------------1--------3---------------1---------------------------|
G|---2----------------0--------0---------------2-----------------------------|
D|-0----------------2------------------------2-------------------------------|
A|----------------3----------2-------------0---------------------------------|
E|---------------------------------------------------------------------------|

Have fun!
Добавлено: 13.08.2015
Вам также может быть интересно:
Другие материалы по этой песне:
  • Аккорды и текст

Страница создана 13.08.2015
http://primanota.ru/gers-pardoel/we-missen-je-chords.htm
Привет, Гость.
Предлагаем пройти революционный курс по гитаре.
Подарок от PrimaNota.Ru, забирай!