PrimaNota.ru - самый крупный в мире бесплатный архив песенных текстов, аккордов, табулатур и нот


Germs - The Other Newest One - текст песни, таба, видео

Регистрация Запомнить меня
Войти через:  Facebook Google Twitter Vk Yandex Mail.ru

Germs - The Other Newest One - текст песни, таба, видео

Печатать
Просмотров: 86
Авторы музыки: Georg Ruthenberg, Darby Crash
Авторы текста: Georg Ruthenberg, Darby Crash
Intro:

e|6*-------------------------------------|
b|6*-------------------------------------|
g|7*-------------------------------------|
d|8*-------------------------------------|
a|8*-------------------------------------|(repeat this X 24 )
e|6*-------------------------------------|

*= palm mute

Verses:

e|6-6-6--7-7-7--9--9--9---11-11-11----------------------|
b|6-6-6--7-7-7--9--9--9---11-11-11----------------------|
g|7-7-7--8-8-8--10-10-10--11-11-11----------------------|
d|8-8-8--9-9-9--11-11-11--13-13-13----------------------|
a|8-8-8--9-9-9--11-11-11--13-13-13----------------------|
e|6-6-6--7-7-7--9--9--9---11-11-11----------------------|

I feel your body's close to mine
I hear your breath and mine in time
I know I'm nothing but it's you that I need
I touch your skin and it starts to feed

Chorus:

e|7-7-7-7------9--9--9--9-----------------------------|
b|7-7-7-7------9--9--9--9-----------------------------|
g|8-8-8-8------10-10-10-10----------------------------|
d|9-9-9-9------11-11-11-11----------------------------|
a|9-9-9-9------11-11-11-11----------------------------|
e|7-7-7-7------9--9--9--9-----------------------------|

You're not the first you're not the last


e|7-7-7-7-7-7-7--9--9--9--9--9--9--9----------------------------|
b|7-7-7-7-7-7-7--9--9--9--9--9--9--9----------------------------|
g|8-8-8-8-8-8-8--10-10-10-10-10-10-10---------------------------|
d|9-9-9-9-9-9-9--11-11-11-11-11-11-11---------------------------|
a|9-9-9-9-9-9-9--11-11-11-11-11-11-11---------------------------|
e|7-7-7-7-7-7-7--9--9--9--9--9--9--9----------------------------|

Another day another crash


e|7-7-7-7-7-7-7--9--9--9--9--9--9--9--11-11-11-11-11-11-11-11-11--|
b|7-7-7-7-7-7-7--9--9--9--9--9--9--9--11-11-11-11-11-11-11-11-11--|
g|8-8-8-8-8-8-8--10-10-10-10-10-10-10-11-11-11-11-11-11-11-11-11--|
d|9-9-9-9-9-9-9--11-11-11-11-11-11-11-13-13-13-13-13-13-13-13-13--|
a|9-9-9-9-9-9-9--11-11-11-11-11-11-11-13-13-13-13-13-13-13-13-13--|
e|7-7-7-7-7-7-7--9--9--9--9--9--9--9--11-11-11-11-11-11-11-11-11--|

verses:

e|6*-------------------------------------|
b|6*-------------------------------------|
g|7*-------------------------------------|
d|8*-------------------------------------|
a|8*-------------------------------------|(repeat this X 16)
e|6*-------------------------------------|

e|6-6-6--7-7-7--9--9--9---11-11-11----------------------|
b|6-6-6--7-7-7--9--9--9---11-11-11----------------------|
g|7-7-7--8-8-8--10-10-10--11-11-11----------------------|
d|8-8-8--9-9-9--11-11-11--13-13-13----------------------|
a|8-8-8--9-9-9--11-11-11--13-13-13----------------------|
e|6-6-6--7-7-7--9--9--9---11-11-11----------------------|

My eyes meet yours in secret glance
Our bodies locked in ancient stance
You whisper something and I know it's good
You're acting crazy just like I knew you would

Chorus:

e|7-7-7-7------9--9--9--9-----------------------------|
b|7-7-7-7------9--9--9--9-----------------------------|
g|8-8-8-8------10-10-10-10----------------------------|
d|9-9-9-9------11-11-11-11----------------------------|
a|9-9-9-9------11-11-11-11----------------------------|
e|7-7-7-7------9--9--9--9-----------------------------|

You're not the first you're not the last


e|7-7-7-7-7-7-7--9--9--9--9--9--9--9----------------------------|
b|7-7-7-7-7-7-7--9--9--9--9--9--9--9----------------------------|
g|8-8-8-8-8-8-8--10-10-10-10-10-10-10---------------------------|
d|9-9-9-9-9-9-9--11-11-11-11-11-11-11---------------------------|
a|9-9-9-9-9-9-9--11-11-11-11-11-11-11---------------------------|
e|7-7-7-7-7-7-7--9--9--9--9--9--9--9----------------------------|

Another day another crash

e|7-7-7-7-7-7-7--9--9--9--9--9--9--9--11-11-11-11-11-11-11-11-11--|
b|7-7-7-7-7-7-7--9--9--9--9--9--9--9--11-11-11-11-11-11-11-11-11--|
g|8-8-8-8-8-8-8--10-10-10-10-10-10-10-11-11-11-11-11-11-11-11-11--|
d|9-9-9-9-9-9-9--11-11-11-11-11-11-11-13-13-13-13-13-13-13-13-13--|
a|9-9-9-9-9-9-9--11-11-11-11-11-11-11-13-13-13-13-13-13-13-13-13--|
e|7-7-7-7-7-7-7--9--9--9--9--9--9--9--11-11-11-11-11-11-11-11-11--|

e|7-7-7-7-7-7-7--9--9--9--9--9--9--9--11-11-11-11-11-11-11-11-11--|
b|7-7-7-7-7-7-7--9--9--9--9--9--9--9--11-11-11-11-11-11-11-11-11--|
g|8-8-8-8-8-8-8--10-10-10-10-10-10-10-11-11-11-11-11-11-11-11-11--|
d|9-9-9-9-9-9-9--11-11-11-11-11-11-11-13-13-13-13-13-13-13-13-13--|
a|9-9-9-9-9-9-9--11-11-11-11-11-11-11-13-13-13-13-13-13-13-13-13--|
e|7-7-7-7-7-7-7--9--9--9--9--9--9--9--11-11-11-11-11-11-11-11-11--|

Embracing my life between your thighs
We will perform in the deadly skies

e|7-7-7-7-7-7-7--9--9--9--9--9--9--9--11-11-11-11-11-11-11-11-11--|
b|7-7-7-7-7-7-7--9--9--9--9--9--9--9--11-11-11-11-11-11-11-11-11--|
g|8-8-8-8-8-8-8--10-10-10-10-10-10-10-11-11-11-11-11-11-11-11-11--|
d|9-9-9-9-9-9-9--11-11-11-11-11-11-11-13-13-13-13-13-13-13-13-13--|
a|9-9-9-9-9-9-9--11-11-11-11-11-11-11-13-13-13-13-13-13-13-13-13--|
e|7-7-7-7-7-7-7--9--9--9--9--9--9--9--11-11-11-11-11-11-11-11-11--|

Reducing my mind to endless nights
You send my dreams to their demise
Realized by your last breath ...


Verses:

e|6*-------------------------------------|
b|6*-------------------------------------|
g|7*-------------------------------------|
d|8*-------------------------------------|
a|8*-------------------------------------|(repeat this X 16)
e|6*-------------------------------------|

e|6-6-6--7-7-7--9--9--9---11-11-11----------------------|
b|6-6-6--7-7-7--9--9--9---11-11-11----------------------|
g|7-7-7--8-8-8--10-10-10--11-11-11----------------------|
d|8-8-8--9-9-9--11-11-11--13-13-13----------------------|
a|8-8-8--9-9-9--11-11-11--13-13-13----------------------|
e|6-6-6--7-7-7--9--9--9---11-11-11----------------------|

I take your hair in to my hands
I pull it tight to fit your demands
Feel my body in to yours
I Know it's right cause that's my soul you stir

Chorus (repeat X 4):

e|7-7-7-7------9--9--9--9-----------------------------|
b|7-7-7-7------9--9--9--9-----------------------------|
g|8-8-8-8------10-10-10-10----------------------------|
d|9-9-9-9------11-11-11-11----------------------------|
a|9-9-9-9------11-11-11-11----------------------------|
e|7-7-7-7------9--9--9--9-----------------------------|

You're not the first you're not the last


e|7-7-7-7-7-7-7--9--9--9--9--9--9--9----------------------------|
b|7-7-7-7-7-7-7--9--9--9--9--9--9--9----------------------------|
g|8-8-8-8-8-8-8--10-10-10-10-10-10-10---------------------------|
d|9-9-9-9-9-9-9--11-11-11-11-11-11-11---------------------------|
a|9-9-9-9-9-9-9--11-11-11-11-11-11-11---------------------------|
e|7-7-7-7-7-7-7--9--9--9--9--9--9--9----------------------------|

Another day another crash

e|7-7-7-7-7-7-7--9--9--9--9--9--9--9--11-11-11-11-11-11-11-11-11--|
b|7-7-7-7-7-7-7--9--9--9--9--9--9--9--11-11-11-11-11-11-11-11-11--|
g|8-8-8-8-8-8-8--10-10-10-10-10-10-10-11-11-11-11-11-11-11-11-11--|
d|9-9-9-9-9-9-9--11-11-11-11-11-11-11-13-13-13-13-13-13-13-13-13--|
a|9-9-9-9-9-9-9--11-11-11-11-11-11-11-13-13-13-13-13-13-13-13-13--|
e|7-7-7-7-7-7-7--9--9--9--9--9--9--9--11-11-11-11-11-11-11-11-11--|


http://www.youtube.com/watch?v=b9fsKSjlcYU
Добавлено: 21.11.2013
Другие материалы по этой песне:
  • Аккорды и текст

Страница создана 14.06.2012
http://primanota.ru/germs/the-other-newest-one-chords.htm
Привет, Гость.
Предлагаем пройти революционный курс по гитаре.
Подарок от PrimaNota.Ru, забирай!