PrimaNota.ru - самый крупный в мире бесплатный архив песенных текстов, аккордов, табулатур и нот


Germs - Street Dreams - таба, видео

Регистрация Запомнить меня
Войти через:  Facebook Google Twitter Vk Yandex Mail.ru

Germs - Street Dreams - таба, видео

Печатать
Просмотров: 193
Уроки эстрадного вокала в Санкт-Петербурге
Intro :

e|-------------------------------------|
b|-------------------------------------|
g|-------------------------------------|
d|-------------------------------------|
a|-------------------------------------|
e|3-3---3-3---3-3-0-3-5----------------|

Verses:

e|-------------------------------------|
b|-------------------------------------|
g|-------------------------------------|
d|-------------------------------------|
a|5-5-5-0------------------------------|
e|--------3-5--------------------------|

I won't build my life on your demands 'cause

e|-------------------------------------|
b|-------------------------------------|
g|-------------------------------------|
d|-------------------------------------|
a|5-5-5-0------------------------------|
e|--------3-5--------------------------|

I get my truths from a higher command

e|-------------------------------------|
b|-------------------------------------|
g|-------------------------------------|
d|-------------------------------------|
a|5-5-5-0------------------------------|
e|--------3-5--------------------------|

I've put my dreams through a tougher test and

e|-------------------------------------|
b|-------------------------------------|
g|-------------------------------------|
d|-------------------------------------|
a|5-5-5-0------------------------------|
e|--------3-5--------------------------|

I'm pullin' mind from outta this mess

Chorus:

e|5~7-7-7------------------------------|
b|5~7-7-7------------------------------|
g|-------------------------------------|
d|-------------------------------------|
a|-------------------------------------|
e|----------3-3-3-3-3------------------|


I've got street dreams together with plans

e|5~7-7-7------------------------------|
b|5~7-7-7------------------------------|
g|-------------------------------------|
d|-------------------------------------|
a|-------------------------------------|
e|----------5-5-5-5-5------------------|

I've got street dreams chaotic new stands

e|5~7-7-7------------------------------|
b|5~7-7-7------------------------------|
g|-------------------------------------|
d|-------------------------------------|
a|-------------------------------------|
e|----------3-3-3-3-3------------------|

I've got street dreams ultra magic mess

e|5~7-7-7------------------------------|
b|5~7-7-7------------------------------|
g|-------------------------------------|
d|-------------------------------------|
a|-------------------------------------|
e|----------5-5-5-5-5-4-3--------------|

I've got street dreams you're gonna detest

e|-------------------------------------|
b|-------------------------------------|
g|-------------------------------------|
d|-------------------------------------|
a|-------------------------------------|
e|3-3---3-3-0-3-5----------------------|

Verses:

e|-------------------------------------|
b|-------------------------------------|
g|-------------------------------------|
d|-------------------------------------|
a|5-5-5-0------------------------------|
e|--------3-5--------------------------|

I don't like the way the world's progressin'

e|-------------------------------------|
b|-------------------------------------|
g|-------------------------------------|
d|-------------------------------------|
a|5-5-5-0------------------------------|
e|--------3-5--------------------------|

God's on fire screamin' depressin'...yeah!

e|-------------------------------------|
b|-------------------------------------|
g|-------------------------------------|
d|-------------------------------------|
a|5-5-5-0------------------------------|
e|--------3-5--------------------------|

I want a future that's not in the past

e|-------------------------------------|
b|-------------------------------------|
g|-------------------------------------|
d|-------------------------------------|
a|5-5-5-0------------------------------|
e|--------3-5--------------------------|

I don't want your recycled trash...kill it!

Chorus:

e|5~7-7-7------------------------------|
b|5~7-7-7------------------------------|
g|-------------------------------------|
d|-------------------------------------|
a|-------------------------------------|
e|----------3-3-3-3-3------------------|

I've got street dreams together with plans

e|5~7-7-7------------------------------|
b|5~7-7-7------------------------------|
g|-------------------------------------|
d|-------------------------------------|
a|-------------------------------------|
e|----------5-5-5-5-5------------------|

I've got street dreams chaotic new stands

e|5~7-7-7------------------------------|
b|5~7-7-7------------------------------|
g|-------------------------------------|
d|-------------------------------------|
a|-------------------------------------|
e|----------3-3-3-3-3------------------|


I've got street dreams ultra magic mess

e|5~7-7-7------------------------------|
b|5~7-7-7------------------------------|
g|-------------------------------------|
d|-------------------------------------|
a|-------------------------------------|
e|----------5-5-5-5-5-4-3--------------|

I've got street dreams you're gonna detest

Bridge:

e|-------------------------------------|
b|-------------------------------------|
g|-------------------------------------|
d|-------------------------------------|
a|-------------------------------------|
e|3-3-0-0-2-3-3-3-3--------------------|

Mr. Bourgeois we're lookin' for you

e|-------------------------------------|
b|-------------------------------------|
g|-------------------------------------|
d|-------------------------------------|
a|-------------------------------------|
e|3-3-0-0-2-3-3-3-3--------------------|

We want our lives, we ain't got two

e|-------------------------------------|
b|-------------------------------------|
g|-------------------------------------|
d|-------------------------------------|
a|-------------------------------------|
e|3-3-0-0-2-3-3-3-3--------------------|

We're takin' the keys to the locked doors

e|-------------------------------------|
b|-------------------------------------|
g|-------------------------------------|
d|-------------------------------------|
a|-------------------------------------|
e|3-3-0-0-2-3-3-3-3--------------------|

The future is for us the past is yours

e|-------------------------------------|
b|-------------------------------------|
g|-------------------------------------|
d|-------------------------------------|
a|-------------------------------------|
e|3-3-0-0-2-3-3-3-3--------------------|

Give us feelings give us more than you've got

e|-------------------------------------|
b|-------------------------------------|
g|-------------------------------------|
d|-------------------------------------|
a|-------------------------------------|
e|3-3-0-0-2-3-3-3-3--------------------|

Give us everything, everything we want

e|-------------------------------------|
b|-------------------------------------|
g|-------------------------------------|
d|-------------------------------------|
a|-------------------------------------|
e|3-5-5----5-5----5-5------------------|

Build me a world with nothing restrained

e|-------------------------------------|
b|-------------------------------------|
g|-------------------------------------|
d|-------------------------------------|
a|5-5-5-0------------------------------|
e|--------3-5--------------------------|

Give me a hand I guess I can't be blamed

e|-------------------------------------|
b|-------------------------------------|
g|-------------------------------------|
d|-------------------------------------|
a|5-5-5-0------------------------------|
e|--------3-5--------------------------|

If there's a drop to be bled then it's for me

e|-------------------------------------|
b|-------------------------------------|
g|-------------------------------------|
d|-------------------------------------|
a|5-5-5-0------------------------------|
e|--------3-5--------------------------|

Yeah! Everything / everyone for free!

Chorus:

Chorus:

e|5~7-7-7------------------------------|
b|5~7-7-7------------------------------|
g|-------------------------------------|
d|-------------------------------------|
a|-------------------------------------|
e|----------3-3-3-3-3------------------|

I've got street dreams together with plans

e|5~7-7-7------------------------------|
b|5~7-7-7------------------------------|
g|-------------------------------------|
d|-------------------------------------|
a|-------------------------------------|
e|----------5-5-5-5-5------------------|

I've got street dreams chaotic new stands

e|5~7-7-7------------------------------|
b|5~7-7-7------------------------------|
g|-------------------------------------|
d|-------------------------------------|
a|-------------------------------------|
e|----------3-3-3-3-3------------------|


I've got street dreams ultra magic mess

e|5~7-7-7------------------------------|
b|5~7-7-7------------------------------|
g|-------------------------------------|
d|-------------------------------------|
a|-------------------------------------|
e|----------5-5-5-5-5-4-3--------------|

I've got street dreams you're gonna detest


End:

e|-------------------------------------|
b|-------------------------------------|
g|-------------------------------------|
d|-------------------------------------|
a|-------------------------------------|
e|3-3-0-0-2-3-3-3-3--------------------|

e|-------------------------------------|
b|-------------------------------------|
g|-------------------------------------|
d|-------------------------------------|
a|-------------------------------------|
e|3-3-0-0-2-3-3-3-3--------------------

e|-------------------------------------|
b|-------------------------------------|
g|-------------------------------------|
d|-------------------------------------|
a|-------------------------------------|
e|3-3-0-0-2-3-3-3-3--------------------|

http://www.youtube.com/watch?v=xJ4ogT9KetM




Добавлено: 16.07.2013
Другие материалы по этой песне:
  • Аккорды и текст

Страница создана 16.07.2013
http://primanota.ru/germs/street-dreams-chords.htm
Привет, Гость.
Предлагаем пройти революционный курс по гитаре.
Подарок от PrimaNota.Ru, забирай!