PrimaNota.ru - самый крупный в мире бесплатный архив песенных текстов, аккордов, табулатур и нот


Germs - Manimal - текст песни, таба, бас-таба, видео

Регистрация Запомнить меня
Войти через:  Facebook Google Twitter Vk Yandex Mail.ru

Germs - Manimal - текст песни, таба, бас-таба, видео

Печатать
Просмотров: 192
Авторы музыки: Georg Ruthenberg, Darby Crash

From the album GI/MIA
someone requested this tab and so here it is enjoy!

intro chords (while bass line is playing)-

E--0-----0-----0-----0--|
B--2-----0-----2-----0--|  On the A chord strum going from the E string to the
G--2-----1-----2--------|  A string
D--2-----2-----2--------|
A--0-----2-----0--------|
E--------0--------------|

riff-

E----------------------------|
B----------------------------|
G----------------------------|  add some vibrato on some notes listen to the
D----------------------------|  record to see which ones.
A--0-0-0-0-2-------3--5-3-2--|
E-------------3-0------------|

verse-

  pm...........................
E--------------------------------|
B--------------------------------|
G--------------------------------| repeat this a few times. some times he
D--22222222222222----------------| stops palm muting it for a bit but you can
A--0000000000000055555555555555--| work out when he does it.
E----------------33333333333333--|

verse cont.-

E--0-0-0-0-0-0-0-0-0-3-3-3-3-3-3-3-3--|
B--2-2-2-2-2-2-2-2-2-3-3-3-3-3-3-3-3--|
G--2-2-2-2-2-2-2-2-2-4-4-4-4-4-4-4-4--| after this he just palm mutes an A
D--2-2-2-2-2-2-2-2-2-5-5-5-5-5-5-5-5--| chord before the chorus.
A--0-0-0-0-0-0-0-0-0-5-5-5-5-5-5-5-5--|
E--------------------3-3-3-3-3-3-3-3--|

chorus-

  pm...
E------0--1--3\-3\-3\--|
B------2--1--3\-3\-3\--|
G------2--2--4\-4\-4\--| on the last time he slides the G chord down 5 times
D--22222--3--5\-5\-5\--|
A--00000--3--5\-5\-5\--|
E---------1--3\-3\-3\--|

bit before last chorus-

E--------------------|
B--------------------|
G--2-22-44---555555--| I had to listen carefully for this bit but this is
D--2-22-44-2-555555--| definately how it goes
A--0-00-22-2-333333--|
E----------0---------|

at the end he just plays the riff at the beginning but sped up.

tats it im pretty sure thats 100% correct.

tabbed by the punk tab wizard: chris.l

if you have any PUNK songs that you would like me to tab then drop me a line at gerbilgenitalia@yahoo.co.uk
Добавлено: 19.07.2012
Другие материалы по этой песне:
  • Аккорды и текст

Страница создана 28.02.2012
http://primanota.ru/germs/manimal-chords.htm
Привет, Гость.
Предлагаем пройти революционный курс по гитаре.
Подарок от PrimaNota.Ru, забирай!