PrimaNota.ru - самый крупный в мире бесплатный архив песенных текстов, аккордов, табулатур и нот


Germs - Caught in my Eye - текст песни, таба, видео

Регистрация Запомнить меня
Войти через:  Facebook Google Twitter Vk Yandex Mail.ru

Germs - Caught in my Eye - текст песни, таба, видео

Печатать
Просмотров: 66
Авторы музыки: Jan Paul Beahm
Авторы текста: Jan Paul Beahm
Hello Folks! today i propose you my cover "Caught in my eye" from the incredible Punk 
band "The Germs"!

don't forget to rate me, tell me what do you think,comments ;)

if you need more information : Machine_sk8@hotmail.fr

Enjoy !

*=palm mute
/= slide
~= bend

Intro:

E-0-------------3-3-3--3-3-3--5-5-5--5-5-5-6-6-6-5-6-5--------------------|
B-0-------------3-3-3--3-3-3--5-5-5--5-5-5-6-6-6-5-6-5--------------------|
G-1-------------4-4-4--4-4-4--6-6-6--6-6-6-7-7-7-6-7-6---------------------|
D-2-------------5-5-5--5-5-5--7-7-7--7-7-7-8-8-8-7-8-7---------------------|
A-2-------------5-5-5--5-5-5--7-7-7--7-7-7-8-8-8-7-8-7---------------------|
E-0-------------3-3-3--3-3-3--5-5-5--5-5-5-6-6-6-5-6-5---------------------|

E-0-0-0--0-0-0--3-3-3--3-3-3--5-5-5--5-5-5-6-6-6-5-6-5---------------------|
B-0-0-0--0-0-0--3-3-3--3-3-3--5-5-5--5-5-5-6-6-6-5-6-5---------------------|
G-1-1-1--1-1-1--4-4-4--4-4-4--6-6-6--6-6-6-7-7-7-6-7-6---------------------|
D-2-2-2--2-2-2--5-5-5--5-5-5--7-7-7--7-7-7-8-8-8-7-8-7---------------------|
A-2-2-2--2-2-2--5-5-5--5-5-5--7-7-7--7-7-7-8-8-8-7-8-7---------------------|
E-0-0-0--0-0-0--3-3-3--3-3-3--5-5-5--5-5-5-6-6-6-5-6-5---------------------|

Verses:


E-0-0-0--0-0-0--3-3-3--3-3-3--5-5-5--5-5-5-6-6-6-5-6-5---------------------|
B-0-0-0--0-0-0--3-3-3--3-3-3--5-5-5--5-5-5-6-6-6-5-6-5---------------------|
G-1-1-1--1-1-1--4-4-4--4-4-4--6-6-6--6-6-6-7-7-7-6-7-6---------------------|
D-2-2-2--2-2-2--5-5-5--5-5-5--7-7-7--7-7-7-8-8-8-7-8-7---------------------|
A-2-2-2--2-2-2--5-5-5--5-5-5--7-7-7--7-7-7-8-8-8-7-8-7---------------------|
E-0-0-0--0-0-0--3-3-3--3-3-3--5-5-5--5-5-5-6-6-6-5-6-5---------------------|

though your dark eyes you can feel my every sin

E-0-0-0--0-0-0--3-3-3--3-3-3--5-5-5--5-5-5-6-6-6-5-6-5---------------------|
B-0-0-0--0-0-0--3-3-3--3-3-3--5-5-5--5-5-5-6-6-6-5-6-5---------------------|
G-1-1-1--1-1-1--4-4-4--4-4-4--6-6-6--6-6-6-7-7-7-6-7-6---------------------|
D-2-2-2--2-2-2--5-5-5--5-5-5--7-7-7--7-7-7-8-8-8-7-8-7---------------------|
A-2-2-2--2-2-2--5-5-5--5-5-5--7-7-7--7-7-7-8-8-8-7-8-7---------------------|
E-0-0-0--0-0-0--3-3-3--3-3-3--5-5-5--5-5-5-6-6-6-5-6-5---------------------|

when i walk right into a straight line this world of yours

Chorus:

E-3-3-3-3-3-3--5--5-5-5-5-5----------------------|
B-3-3-3-3-3-3--5--5-5-5-5-5----------------------|
G-4-4-4-4-4-4--6--6-6-6-6-6----------------------|
D-5-5-5-5-5-5--7--7-7-7-7-7----------------------|
A-5-5-5-5-5-5--7--7-7-7-7-7----------------------|
E-3-3-3-3-3-3--5--5-5-5-5-5----------------------|

i got you caught in my eye

E-3-3-3-3-3-3--5--5-5-5-5-5----------------------|
B-3-3-3-3-3-3--5--5-5-5-5-5----------------------|
G-4-4-4-4-4-4--6--6-6-6-6-6----------------------|
D-5-5-5-5-5-5--7--7-7-7-7-7----------------------|
A-5-5-5-5-5-5--7--7-7-7-7-7----------------------|
E-3-3-3-3-3-3--5--5-5-5-5-5----------------------|

i got you caught in my eye

E-3-3-3-3-3-3--5--6-------------6--------|
B-3-3-3-3-3-3--5--6------------5---------|
G-4-4-4-4-4-4--6--6--------------4~------|
D-5-5-5-5-5-5--7--8----------------------|
A-5-5-5-5-5-5--7--8----------------------|
E-3-3-3-3-3-3--5--6----------------------|

i got you caught in my eye again

Verses:

E-0-0-0--0-0-0--3-3-3--3-3-3--5-5-5--5-5-5-6-6-6-5-6-5---------------------|
B-0-0-0--0-0-0--3-3-3--3-3-3--5-5-5--5-5-5-6-6-6-5-6-5---------------------|
G-1-1-1--1-1-1--4-4-4--4-4-4--6-6-6--6-6-6-7-7-7-6-7-6---------------------|
D-2-2-2--2-2-2--5-5-5--5-5-5--7-7-7--7-7-7-8-8-8-7-8-7---------------------|
A-2-2-2--2-2-2--5-5-5--5-5-5--7-7-7--7-7-7-8-8-8-7-8-7---------------------|
E-0-0-0--0-0-0--3-3-3--3-3-3--5-5-5--5-5-5-6-6-6-5-6-5---------------------|

you're the fall guy in the corner of my gloom


E-0-0-0--0-0-0--3-3-3--3-3-3--5-5-5--5-5-5-6-6-6-5-6-5---------------------|
B-0-0-0--0-0-0--3-3-3--3-3-3--5-5-5--5-5-5-6-6-6-5-6-5---------------------|
G-1-1-1--1-1-1--4-4-4--4-4-4--6-6-6--6-6-6-7-7-7-6-7-6---------------------|
D-2-2-2--2-2-2--5-5-5--5-5-5--7-7-7--7-7-7-8-8-8-7-8-7---------------------|
A-2-2-2--2-2-2--5-5-5--5-5-5--7-7-7--7-7-7-8-8-8-7-8-7---------------------|
E-0-0-0--0-0-0--3-3-3--3-3-3--5-5-5--5-5-5-6-6-6-5-6-5---------------------|

it feels like everything i see is nothing new

Chorus:

E-3-3-3-3-3-3--5--5-5-5-5-5----------------------|
B-3-3-3-3-3-3--5--5-5-5-5-5----------------------|
G-4-4-4-4-4-4--6--6-6-6-6-6----------------------|
D-5-5-5-5-5-5--7--7-7-7-7-7----------------------|
A-5-5-5-5-5-5--7--7-7-7-7-7----------------------|
E-3-3-3-3-3-3--5--5-5-5-5-5----------------------|

i got you caught in my eye

E-3-3-3-3-3-3--5--5-5-5-5-5----------------------|
B-3-3-3-3-3-3--5--5-5-5-5-5----------------------|
G-4-4-4-4-4-4--6--6-6-6-6-6----------------------|
D-5-5-5-5-5-5--7--7-7-7-7-7----------------------|
A-5-5-5-5-5-5--7--7-7-7-7-7----------------------|
E-3-3-3-3-3-3--5--5-5-5-5-5----------------------|

i got you caught in my eye

E-3-3-3-3-3-3--5--6-------------6--------|
B-3-3-3-3-3-3--5--6------------5---------|
G-4-4-4-4-4-4--6--6--------------4~------|
D-5-5-5-5-5-5--7--8----------------------|
A-5-5-5-5-5-5--7--8----------------------|
E-3-3-3-3-3-3--5--6----------------------|

i got you caught in my eye again

Verses:

E-0-0-0--0-0-0--3-3-3--3-3-3--5-5-5--5-5-5-6-6-6-5-6-5---------------------|
B-0-0-0--0-0-0--3-3-3--3-3-3--5-5-5--5-5-5-6-6-6-5-6-5---------------------|
G-1-1-1--1-1-1--4-4-4--4-4-4--6-6-6--6-6-6-7-7-7-6-7-6---------------------|
D-2-2-2--2-2-2--5-5-5--5-5-5--7-7-7--7-7-7-8-8-8-7-8-7---------------------|
A-2-2-2--2-2-2--5-5-5--5-5-5--7-7-7--7-7-7-8-8-8-7-8-7---------------------|
E-0-0-0--0-0-0--3-3-3--3-3-3--5-5-5--5-5-5-6-6-6-5-6-5---------------------|

There's a door there that opens without you

E-0-0-0--0-0-0--3-3-3--3-3-3--5-5-5--5-5-5-6-6-6-5-6-5---------------------|
B-0-0-0--0-0-0--3-3-3--3-3-3--5-5-5--5-5-5-6-6-6-5-6-5---------------------|
G-1-1-1--1-1-1--4-4-4--4-4-4--6-6-6--6-6-6-7-7-7-6-7-6---------------------|
D-2-2-2--2-2-2--5-5-5--5-5-5--7-7-7--7-7-7-8-8-8-7-8-7---------------------|
A-2-2-2--2-2-2--5-5-5--5-5-5--7-7-7--7-7-7-8-8-8-7-8-7---------------------|
E-0-0-0--0-0-0--3-3-3--3-3-3--5-5-5--5-5-5-6-6-6-5-6-5---------------------|

And the door lies with open keys to my room

Solo:

E-6-6-6-6-6-6-5-5-5-5-5-5-6-6-6-6-6-6/9/12/14/16-----------------|
B-6-6-6-6-6-6-5-5-5-5-5-5-6-6-6-6-6-6/9/12/14/16-----------------|
G-6-6-6-6-6-6-5-5-5-5-5-5-6-6-6-6-6-6/9/12/14/16-----------------|
D----------------------------------------------------------------|
A----------------------------------------------------------------|
E----------------------------------------------------------------|

E-6-6-6-6-6-6-5-5-5-5-5-5-6-6-6-6-6-6/16-16-14-14/16-16----------------|
B-6-6-6-6-6-6-5-5-5-5-5-5-6-6-6-6-6-6/16-16-14-14/16-16----------------|
G-6-6-6-6-6-6-5-5-5-5-5-5-6-6-6-6-6-6/16-16-14-14/16-16----------------|
D----------------------------------------------------------------------|
A----------------------------------------------------------------------|
E----------------------------------------------------------------------|

Verses:

E-0-0-0--0-0-0--3-3-3--3-3-3--5-5-5--5-5-5-6-6-6-5-6-5---------------------|
B-0-0-0--0-0-0--3-3-3--3-3-3--5-5-5--5-5-5-6-6-6-5-6-5---------------------|
G-1-1-1--1-1-1--4-4-4--4-4-4--6-6-6--6-6-6-7-7-7-6-7-6---------------------|
D-2-2-2--2-2-2--5-5-5--5-5-5--7-7-7--7-7-7-8-8-8-7-8-7---------------------|
A-2-2-2--2-2-2--5-5-5--5-5-5--7-7-7--7-7-7-8-8-8-7-8-7---------------------|
E-0-0-0--0-0-0--3-3-3--3-3-3--5-5-5--5-5-5-6-6-6-5-6-5---------------------|

Flame of the torchlight fill my thighs, fulfill

E-0-0-0--0-0-0--3-3-3--3-3-3--5-5-5--5-5-5-6-6-6-5-6-5---------------------|
B-0-0-0--0-0-0--3-3-3--3-3-3--5-5-5--5-5-5-6-6-6-5-6-5---------------------|
G-1-1-1--1-1-1--4-4-4--4-4-4--6-6-6--6-6-6-7-7-7-6-7-6---------------------|
D-2-2-2--2-2-2--5-5-5--5-5-5--7-7-7--7-7-7-8-8-8-7-8-7---------------------|
A-2-2-2--2-2-2--5-5-5--5-5-5--7-7-7--7-7-7-8-8-8-7-8-7---------------------|
E-0-0-0--0-0-0--3-3-3--3-3-3--5-5-5--5-5-5-6-6-6-5-6-5---------------------|

As I crave, I consume 'em but I don't give

Chorus:

E-3-3-3-3-3-3--5--5-5-5-5-5----------------------|
B-3-3-3-3-3-3--5--5-5-5-5-5----------------------|
G-4-4-4-4-4-4--6--6-6-6-6-6----------------------|
D-5-5-5-5-5-5--7--7-7-7-7-7----------------------|
A-5-5-5-5-5-5--7--7-7-7-7-7----------------------|
E-3-3-3-3-3-3--5--5-5-5-5-5----------------------|

i got you caught in my eye

E-3-3-3-3-3-3--5--5-5-5-5-5----------------------|
B-3-3-3-3-3-3--5--5-5-5-5-5----------------------|
G-4-4-4-4-4-4--6--6-6-6-6-6----------------------|
D-5-5-5-5-5-5--7--7-7-7-7-7----------------------|
A-5-5-5-5-5-5--7--7-7-7-7-7----------------------|
E-3-3-3-3-3-3--5--5-5-5-5-5----------------------|

i got you caught in my eye

E-3-3-3-3-3-3--5--6-------------6--------|
B-3-3-3-3-3-3--5--6------------5---------|
G-4-4-4-4-4-4--6--6--------------4~------|
D-5-5-5-5-5-5--7--8----------------------|
A-5-5-5-5-5-5--7--8----------------------|
E-3-3-3-3-3-3--5--6----------------------|

i got you caught in my eye again

Play the Chorus until the end...

Thanks you everybody!


https://www.youtube.com/watch?v=6exn5FZD1Ls
Добавлено: 09.08.2015
Другие материалы по этой песне:
  • Аккорды и текст

Страница создана 23.07.2012
http://primanota.ru/germs/caught-in-my-eye-chords.htm
Привет, Гость.
Предлагаем пройти революционный курс по гитаре.
Подарок от PrimaNota.Ru, забирай!