PrimaNota.ru - самый крупный в мире бесплатный архив песенных текстов, аккордов, табулатур и нот


Gerardo Grasso - Pericon Nacional - таба, видео

Регистрация Запомнить меня
Войти через:  Facebook Google Twitter Vk Yandex Mail.ru

Gerardo Grasso - Pericon Nacional - таба, видео

Печатать
Просмотров: 133
Уроки эстрадного вокала в Санкт-Петербурге
Pericón Nacional


Tab by Avi Yaacov
Israel, March 2015


This is an amazing incredible piece of music, and it is an amazing arrangement by Hernan Gonzalez.
I have tabbed (over a period of time) it to the best I could by listening and playing many times. 
Eventually I decided to add some ideas / interpretations of my own to make it easy & feasible to play. 
It's no easy piece, some parts can be a bit challenging, but it is really great.



~~~ Info about the arrangement from Mr. Hernan Gonzalez ("aka Leon Bloy on youtube") ~~~

leonbloyguitar.blogspot.co.il/2011/07/pericon-nacional.html

The "Pericón" is a traditional dance from Argentina and Uruguay. 

It is related to other folkloric dances ("cielito"), all with european roots (contradance, minuet). 
Is was already popular in the beginning of s. XIX. At the end of that century it enjoyed a renewed 
popularity (circus of the Podesta brothers), and at that time Gerardo Grasso (Uruguay) wrote down the 
musical version ("Pericón Nacional") that is most usually heard until today. From this version, Gaspar Sagreras 
made a guitar transcription, later Julio Sagreras reformed it - and I made a few modifications.



    A                      E

e|--5---------5------------4----0--4------0-2-0-----|
B|--5---5-5---5--5-7-5-----3--3----3--3-------------|
G|--6---6-6----------------4--4----4--4-------------|
D|--7---7-7-----------------------------------------| 
A|--0---------0---------------2-------2-------------|
E|-------------------------0-------0----------------|


    A                      E

e|--5---------5------------4---0--4--0-2-0----5--|
B|--5---5-5------5-7-5-----3------3-----------5--|
G|--6---6-6----------------4------4-----------6--|
D|--7---7-7-----------------------------------7--| 
A|--0---0-0------------------2-2--------------0--|
E|-------------------------0------0--------------|


e|----------9------7---5---4-2-0---------------------------2-4-5--|
B|-------10------9---7---5-------3-2-0---------------2-3-5--------|
G|-----9-------------------------2-------2---2-1-2-4--------------|
D|--11---------------------------2-------2------------------------|
A|------------0------------------0-------0-----------0------------|
E|-------------------------0--------------------------------------|

e|--7----5----4-------0--------------|
B|-----7----5--------------3---------|
G|------------------4----4----1------|
D|----------------------------2--7---|
A|-----------------------2-------0---| bass carries on to 
E|--0---------------4----------------|    next segment



0:20

If there was a backup guitar:
e|-----5-5------5-5-------------------------|
B|-----5-5------5-5--------5-5------5-5-----|
G|-----6-6------6-6--------7-7------7-7-----|
D|-----------7-------------6-6------6-6-----|
A|--0----------------------------7----------|
E|----------------------0-------------------|

In actuality:
e|-----------------------------------|  
B|-----5h7p5-----5h7p5----5h7p5------|   \ 
G|-----6------6--------6-------------|    \
D|-----7------7--------7-------------|     \
A|-(0)----------0---------0----------|      \
E|-----------------------------------|       \
                                               this part X 2
e|---------------------------------|        /
B|------5h7p5----5h7p5----5h7p5----|       /
G|-------------7--------7----------|      /
D|------6------6--------6----------|     /
A|---------------------------------|    /
E|--0------------0--------0--------|   /

e|-----4---2-2---0-0-------------------------|
B|--5--0--------------3-3--------------------|
G|--6--4-------------------1-2---------------|
D|--7----------------------2-----------------|
A|--0-----------------2------0---------------|
E|-----0---0-----4---------------------------|


e|----------------------------------------------------|
B|----------------------------------------------------|
G|----------------------------------------------------|
D|------2------2---------------------------------2----|
A|--0-4----0-4---------2-------2----------2----2---0--|
E|-----------------0-4---0-4h5--5-4-2-0-4----4--------|


e|----^9---9----9---|---9--9----9--9----9--9---7-7------7-----|
B|----^10--10---10--|---10-10---10-10-----10---7-7--10--7-----|
G|----^9---9----9---|---9--9------------9------7-7------7-----|
D|----^11--11---11--|-----------------------------------------|
A|--0---------0-----|-----------------------------------------|
E|------------------|-------------------0---------------------|

e|--7-7---7-7---7--7--5-5--4-5--|
B|--5-----5-----------2-2--2-2--|
G|--7-7-----7---7--7--2-2--2-2--|
D|------------------------------|
A|-----------------0-------0----|
E|--0---------------------------|

                   
e|--5-5---5-5---5-5---4-4---2-4---|--2-2--2-4-2---2-0-0----0--|
B|--2-2---2-2---2-2---3-3---3-3---|---------------2------4----|
G|--2-------------2---4-4-----4---|---------------------------|
D|--------------------------------|---------0-------2---------|
A|--0-----------------2-------2---|-------2-------0-----------|
E|----------------0---------------|--0------------------------|

e|--0-0---0-2---0-0----------|---------0---------------|
B|--2-2-------------3-3-2-3--|--3-3--3---3--3-2-2-0-2--|
G|--------2---------1-1-1-1--|--1-1--1------2----------|
D|----2---------------0------|-------0------2---2------|
A|--0---------------2-----2--|----2---------0-------0--|
E|----------------0----------|--0----------------------|


D|--------------------------|-----------------------|
A|--2-2---2-3-2--2-0-0---0--|--0-0--0-2-0-----------|
E|---------------------2----|----------------2------|
D|----2---2--------------0--|---------2------2------|
A|--0----------------2------|-------2--------0------|
E|---------------0----------|--0--------------------|



0:56

e|------------------------------------------------------------|
B|--2-2-------0-0--------------------0-0--3-3--2-2--0-0-------|
G|-------1-1------2-2------------1-1---------------------1-2--|
D|---------------------4-4--2-2--------0---------2------------|
A|--------------0------------------2--------2--------------0--|
E|----------------------------0-------------------------------|



1:00

e|--9-----7-5------4-7---10--9--7--5------------|
B|--9--9------7--5-------9---------5------------|
G|--9------------4-------9---------6------------|
D|----------------------------------------------|
A|--0-----0------------------------0------------|
E|---------------0-------0----------------------|


e|------------------4-5---7---5---4-----0--------------|
B|--------------5-7---------7---5-------------3--------|
G|--------4-6-7-----------------------4-----4----1--2--|
D|--7-6-7----------------------------------------2-----|
A|------------------------------------------2-------0--|
E|------------------------0-----------4----------------|



1:10, Each bar play twice:

e|--0--1--0---0--0--5--|--0--1--0---0--0--4--|
B|---------------------|---------------------|
G|---------------------|---------------------|
D|------------------2--|------------------2--|
A|-----0------3--------|------------2--------|
E|---------------------|-----0---------------|



1:20

e|--5-5-4-5-7-5---4-4-3-4-5-4---4-2-1-2-4-2---2-0---2-0----|
B|------------------------------------------------4--------|
G|----------------------------------------------------2----|
D|------------------------------------------------2--------|
A|--0-----------------------------------------0------------|
E|----------------0-------------0--------------------------|


e|------------------------0--|------------------------|
B|--2-1-2-3-2---2-0-0--------|--0---0-2-0--0-----0----|
G|---------------------2-----|----3----------2-1---2--|
D|------------------0--------|------------------------|
A|--0-------------2----------|--2----------0-------0--|
E|--------------0------------|------------------------|



1:29

e|--5h7p5p4-7-5----5-4-4-5-7-5----4-2-0-2-4-2------2-0---2-0--|
B|-----------------------------------------------------4------|
G|------------------------------------------------------------|
D|------------------------------------------------------------|
A|--0----------------------------------------------0----------|
E|-----------------0--------------0------------(0)------------|


e|-------------------------0---------------------|
B|--2h3p2-0-3-2----2--------------0h2p0---2------|
G|-------------------4-3-4--------------3---1-2--|
D|-----------------------------------------------|
A|--0-----------------------------------------0--|
E|-----------------0--------------0--------------|


1:37, Each bar play twice:

e|--9-12---12-12---12-12--|--10-12---12-12---12-12--|
B|-----------------10-----|------------------9------|
G|---------9--------------|----------9--------------|
D|------------------------|-------------------------|   the three "bass"
A|--0---------------------|-------------------------|   notes, by thumb
E|------------------------|--0----------------------|



1:46

e|----^9-----|---9--9----9--9---9-9----7-7------7-----|
B|----^10----|---10-10---10-10----9----7-7--10--7-----|
G|----^9-----|---9--9------------------7-7------7-----|
D|----^11----|----------------------------------------|
A|--0--------|----------------------------------------|
E|-----------|--------------------0-------------------|


e|--10-10---10-10---10-10--9--9-----9----------|
B|--9--9----9--9----9--9---10-10-12------------|
G|--9--9----9--9----9--9---9--9----------------|
D|---------------------------------------------|
A|---------------------0---------0-------------|
E|--0------------------------------------------|


e|--9--9----7----|--------------------------------------|
B|--10-10-----10-|--9-10---7-9---5-7---3-5---2-3-----2--|
G|--9--9---------|---------------------------------4----|
D|---------------|--------------------------------------|
A|--0------------|--------------------------------------|
E|---------------|--0------------0----------------------|



1:55

e|------0--5--------------4-----0-2--|------0-2-4--|--0-2-0--|
B|----2----5----------5---3---3---3--|--2-3--------|---------|
G|--2------6--6---6-7-----4---4---4--|-------------|---------|
D|--2-----------7--------------------|-------------|---------|
A|--0------0------------------2---2--|-------------|---------|
E|------------------------0----------|-------------|---------|
                                       ^Connective^  *played*
                                        suggstion 


e|--5---------5------------4----0--4------0-2-0--5--|
B|--5---5-5---5--5-7-5-----3--3----3--3----------5--|
G|--6---6-6----------------4--4----4--4-------------|
D|--7---7-7--------------------------------------7--| 
A|--0---------0---------------2-------2----------0--|
E|-------------------------0-------0----------------|



2:06

e|----2-2---2^------3-3---3^--|----2-2---2-----3-3----3^---|
B|----3-3---3^------2-2---2^--|--3-3-3---3-----2-2----2^---|
G|----2-2---2^------2-2---2^--|--2-------2-----2-2----2^---|
D|--0-----0-------2-----2-----|--0-----4-0-----2-2----2^---|
A|----------------------------|----4-5-------0------0------|
E|----------------------------|----------------------------|


e|----10--10--10^-----9--9/12--12-----12---14-15-12--12-----|
B|----7---7---7-^--------------10-----10-------------10-----|
G|----7---7---7-^--------------12--12----------------12-----|
D|--0-------0-----------------------------------------------|
A|-----------------------0-----0---------------0------------|
E|----------------------------------------------------------|


e|-----9---------5-5------5--7-5-------------5-------|
B|-----10--8--7--7-7------7------7------7--5---5-----|
G|-----9---------7-7------7----------------6---6-----|
D|----------------------7-------------7--------------|
A|--0---------5-------5------5------5------0---------|
E|---------------------------------------------------|


e|-----9--7----------------------|
B|--5--------9-9-------9---------| 
G|--6--------9-9-----------------|   
D|-----------9-9----9------------|
A|--------7-------7--------------|
E|-------------------------------|

    A                      E

e|--5---------5----------0--4----0--4------0-2-0--|------0-2-4--|
B|--5---5-5----------5-7----3--3-3--3--3----------|--2-3--------|
G|--6---6-6------6-7--------4--4----4--4----------|-------------|
D|--7---7-7---------------------------------------|--my---------| 
A|--0---------0----------------2------------------|----add------|
E|--------------------------0-------0-------------|-------------|


e|--5---------5------------4----0--4------0-2-0--5--|
B|--5---5-5---5--5-7-5-----3--3----3--3----------5--|
G|--6---6-6----------------4--4----4--4-------------|
D|--7---7-7--------------------------------------7--| 
A|--0---------0---------------2-------2----------0--|
E|-------------------------0-------0----------------|



2:43

e|---------12-----12--------9-12v-----0-2-3-4-5---------7-12v-------9-12v--|
B|---------10--10----12-12--9----------------------5--9--------9-10--------|
G|---------9----9----9---9--9--------------------6-------------------------|
D|-------------11----------------------------------------------------------|
A|--0---7--0----------------0-----------------0------------------0---------|
E|----9----------------------------0--------0---------0--------0-----------|


e|-----12-10-10--9--h10--9---9---|----12-12-12--5----|
B|-----9--9--9---10------10-10---|----9--9--9---5----|
G|--9----------------------------|--9-----------6----|
D|-------------------------------|-------------------|
A|---------------0-------0-------|--------------0----|
E|--0----------------------------|--0----------------|


e|-----0-2-0--4--|----7-12---0-2-4--5--|--9---|--5--5^----|
B|---2--------3--|--9---------------2--|--10--|-----2^----|
G|------------4--|------------------2--|--9---|-----2^----|
D|---2-----------|---------------------|--11--|-----2^----|
A|------------2--|------------------0--|------|-----0-----|
E|---------------|--0------------------|------|-----------|


Добавлено: 09.12.2015
Другие материалы по этой песне:
  • Аккорды и текст

Страница создана 09.12.2015
http://primanota.ru/gerardo-grasso/pericon-nacional-chords.htm
Привет, Гость.
Предлагаем пройти революционный курс по гитаре.
Подарок от PrimaNota.Ru, забирай!