PrimaNota.ru - самый крупный в мире бесплатный архив песенных текстов, аккордов, табулатур и нот


Gerald Marks - All Of Me - бас-таба, видео

Регистрация Запомнить меня
Войти через:  Facebook Google Twitter Vk Yandex Mail.ru

Gerald Marks - All Of Me - бас-таба, видео

Печатать
Просмотров: 189
Авторы: Gerald Marks, Seymour Simons

marks gerald all_of_me

Basstab by Jan Bjorklund, Finland
 jani_bjorklund@yahoo.se>
You are welcome to request for basstabs!
Fingering and positions as suggested by TablEdit,
please use common sense!

TablEdited by Jan Bjorklund
Tuning : E A D G 	Time Signature: 4/4

 |               |               |               |    
           
|--------------------------------0-------------------------------|
|----------------------------------------------------------------|
|3---------------------------------------------------------------|
|----------------------------------------------------------------|

 |               |               |               |    
           
|--------------------------------0-------------------------------|
|----------------------------------------------------------------|
|3---------------------------------------------------------------|
|----------------------------------------------------------------|

 |               |               |               |    
           
|----------------------------------------------------------------|
|--------------------------------4-------------------------------|
|2---------------------------------------------------------------|
|----------------------------------------------------------------|

 |               |               |               |    
           
|----------------------------------------------------------------|
|----------------------------------------------------------------|
|--------------------------------2-------------------------------|
|0---------------------------------------------------------------|

 |               |               |               |    
           
|----------------------------------------------------------------|
|----------------------------------------------------------------|
|--------------------------------2-------------------------------|
|0---------------------------------------------------------------|

 |               |               |               |    
           
|----------------------------------------------------------------|
|----------------------------------------------------------------|
|0-------------------------------0-------------------------------|
|----------------------------------------------------------------|

 |               |               |               |    
           
|----------------------------------------------------------------|
|0---------------------------------------------------------------|
|--------------------------------0-------------------------------|
|----------------------------------------------------------------|

 |               |               |               |    
           
|--------------------------------2-------------------------------|
|0---------------------------------------------------------------|
|----------------------------------------------------------------|
|----------------------------------------------------------------|

 |               |               |               |    
           
|----------------------------------------------------------------|
|----------------------------------------------------------------|
|2-------------------------------2-------------------------------|
|----------------------------------------------------------------|

 |               |               |               |    
           
|----------------------------------------------------------------|
|----------------------------------------------------------------|
|--------------------------------2-------------------------------|
|0---------------------------------------------------------------|

 |               |               |               |    
           
|----------------------------------------------------------------|
|----------------------------------------------------------------|
|0---------------------------------------------------------------|
|--------------------------------0-------------------------------|

 |               |               |               |    
           
|----------------------------------------------------------------|
|--------------------------------2-------------------------------|
|0---------------------------------------------------------------|
|----------------------------------------------------------------|

 |               |               |               |    
           
|----------------------------------------------------------------|
|----------------------------------------------------------------|
|0-------------------------------3-------------------------------|
|----------------------------------------------------------------|

 |               |               |               |    
           
|----------------------------------------------------------------|
|0-------------------------------0-------------------------------|
|----------------------------------------------------------------|
|----------------------------------------------------------------|

 |               |               |               |    
           
|----------------------------------------------------------------|
|0-------------------------------3-------------------------------|
|----------------------------------------------------------------|
|----------------------------------------------------------------|

 |               |               |               |    
           
|0---------------------------------------------------------------|
|--------------------------------0-------------------------------|
|----------------------------------------------------------------|
|----------------------------------------------------------------|

 |               |               |               |    
           
|--------------------------------0-------------------------------|
|----------------------------------------------------------------|
|3---------------------------------------------------------------|
|----------------------------------------------------------------|

 |               |               |               |    
           
|--------------------------------0-------------------------------|
|----------------------------------------------------------------|
|3---------------------------------------------------------------|
|----------------------------------------------------------------|

 |               |               |               |    
           
|----------------------------------------------------------------|
|--------------------------------4-------------------------------|
|2---------------------------------------------------------------|
|----------------------------------------------------------------|

 |               |               |               |    
           
|----------------------------------------------------------------|
|----------------------------------------------------------------|
|----------------------------------------------------------------|
|0-------------------------------0-------------------------------|

 |               |               |               |    
           
|----------------------------------------------------------------|
|----------------------------------------------------------------|
|--------------------------------2-------------------------------|
|0---------------------------------------------------------------|

 |               |               |               |    
           
|----------------------------------------------------------------|
|----------------------------------------------------------------|
|0-------------------------------0-------------------------------|
|----------------------------------------------------------------|

 |               |               |               |    
           
|----------------------------------------------------------------|
|0---------------------------------------------------------------|
|--------------------------------0-------------------------------|
|----------------------------------------------------------------|

 |               |               |               |    
           
|--------------------------------2-------------------------------|
|0---------------------------------------------------------------|
|----------------------------------------------------------------|
|----------------------------------------------------------------|

 |               |               |               |    
           
|----------------------------------------------------------------|
|----------------------------------------------------------------|
|--------------------------------3-------------------------------|
|1---------------------------------------------------------------|

 |               |               |               |    
           
|----------------------------------------------------------------|
|4---------------------------------------------------------------|
|--------------------------------3-------------------------------|
|----------------------------------------------------------------|

 |               |               |               |    
           
|----------------------------------------------------------------|
|----------------------------------------------------------------|
|3---------------------------------------------------------------|
|--------------------------------1-------------------------------|

 |               |               |               |    
           
|----------------------------------------------------------------|
|----------------------------------------------------------------|
|--------------------------------0-------------------------------|
|0---------------------------------------------------------------|

 |               |               |               |    
           
|----------------------------------------------------------------|
|0-------------------------------0-------------------------------|
|----------------------------------------------------------------|
|----------------------------------------------------------------|

 |               |               |               |    
           
|----------------------------------------------------------------|
|0---------------------------------------------------------------|
|----------------------------------------------------------------|
|--------------------------------3-------------------------------|

 |               |               |               |    
           
|----------------------------------------------------------------|
|----------------------------------------------------------------|
|3-------------------------------0-------------------------------|
|----------------------------------------------------------------|

 |               |               |               |    
           
|----------------------------------------------------------------|
|0---------------------------------------------------------------|
|----------------------------------------------------------------|
|--------------------------------3-------------------------------|

 |               |               |               |    
           
|--------------------------------0---------------0---------------|
|----------------------------------------------------------------|
|3---------------3-----------------------------------------------|
|----------------------------------------------------------------|

 |               |               |               |    
           
|5---------------5-----------------------------------------------|
|--------------------------------5---------------5---------------|
|----------------------------------------------------------------|
|----------------------------------------------------------------|

 |               |               |               |    
           
|----------------------------------------------------------------|
|--------------------------------0---------------4---------------|
|2---------------4-----------------------------------------------|
|----------------------------------------------------------------|

 |               |               |               |    
           
|----------------------------------------------------------------|
|----------------------------------------------------------------|
|----------------2-----------------------------------------------|
|0-------------------------------4---------------0---------------|

 |               |               |               |    
           
|----------------------------------------------------------------|
|2---------------2-----------------------------------------------|
|--------------------------------2---------------2---------------|
|----------------------------------------------------------------|

 |               |               |               |    
           
|----------------------------------------------------------------|
|------------------------------------------------2---------------|
|0---------------0---------------0-------------------------------|
|----------------------------------------------------------------|

 |               |               |               |    
           
|----------------2-----------------------------------------------|
|0-----------------------------------------------2---------------|
|--------------------------------0-------------------------------|
|----------------------------------------------------------------|

 |               |               |               |    
           
|------------------------------------------------2---------------|
|0---------------2---------------3-------------------------------|
|----------------------------------------------------------------|
|----------------------------------------------------------------|

 |               |               |               |    
           
|----------------------------------------------------------------|
|--------------------------------0---------------4---------------|
|2---------------4-----------------------------------------------|
|----------------------------------------------------------------|

 |               |               |               |    
           
|----------------------------------------------------------------|
|----------------------------------------------------------------|
|--------------------------------2---------------2---------------|
|0---------------0-----------------------------------------------|

 |               |               |               |    
           
|----------------------------------------------------------------|
|----------------2-----------------------------------------------|
|0---------------------------------------------------------------|
|--------------------------------0---------------0---------------|

 |               |               |               |    
           
|----------------------------------------------------------------|
|------------------------------------------------2---------------|
|0---------------2---------------3-------------------------------|
|----------------------------------------------------------------|

 |               |               |               |    
           
|----------------------------------------------------------------|
|--------------------------------2---------------2---------------|
|0---------------0-----------------------------------------------|
|----------------------------------------------------------------|

 |               |               |               |    
           
|------------------------------------------------2---------------|
|0---------------0---------------0-------------------------------|
|----------------------------------------------------------------|
|----------------------------------------------------------------|

 |               |               |               |    
           
|--------------------------------2---------------2---------------|
|0---------------0-----------------------------------------------|
|----------------------------------------------------------------|
|----------------------------------------------------------------|

 |               |               |               |    
           
|----------------------------------------------------------------|
|----------------0-----------------------------------------------|
|--------------------------------2-------------------------------|
|3-----------------------------------------------3---------------|

 |               |               |               |    
           
|--------------------------------0---------------0---------------|
|----------------------------------------------------------------|
|3---------------3-----------------------------------------------|
|----------------------------------------------------------------|

 |               |               |               |    
           
|5---------------5-----------------------------------------------|
|--------------------------------5---------------5---------------|
|----------------------------------------------------------------|
|----------------------------------------------------------------|

 |               |               |               |    
           
|----------------------------------------------------------------|
|--------------------------------4---------------4---------------|
|2---------------2-----------------------------------------------|
|----------------------------------------------------------------|

 |               |               |               |    
           
|----------------------------------------------------------------|
|----------------2-----------------------------------------------|
|--------------------------------2-------------------------------|
|0-----------------------------------------------0---------------|

 |               |               |               |    
           
|----------------------------------------------------------------|
|----------------------------------------------------------------|
|--------------------------------2---------------2---------------|
|0---------------0-----------------------------------------------|

 |               |               |               |    
           
|----------------------------------------------------------------|
|----------------2-------------------------------2---------------|
|0-------------------------------0-------------------------------|
|----------------------------------------------------------------|

 |               |               |               |    
           
|----------------2-----------------------------------------------|
|0---------------------------------------------------------------|
|--------------------------------0---------------0---------------|
|----------------------------------------------------------------|

 |               |               |               |    
           
|--------------------------------2---------------2---------------|
|0---------------0-----------------------------------------------|
|----------------------------------------------------------------|
|----------------------------------------------------------------|

 |               |               |               |    
           
|----------------------------------------------------------------|
|----------------3-----------------------------------------------|
|--------------------------------3-------------------------------|
|1-----------------------------------------------1---------------|

 |               |               |               |    
           
|----------------------------------------------------------------|
|----------------------------------------------------------------|
|--------------------------------3---------------3---------------|
|2---------------2-----------------------------------------------|

 |               |               |               |    
           
|----------------0-----------------------------------------------|
|----------------------------------------------------------------|
|3---------------------------------------------------------------|
|--------------------------------1---------------1---------------|

 |               |               |               |    
           
|----------------------------------------------------------------|
|----------------------------------------------------------------|
|--------------------------------0---------------0---------------|
|0---------------0-----------------------------------------------|

 |               |               |               |    
           
|------------------------------------------------2---------------|
|0---------------2---------------4-------------------------------|
|----------------------------------------------------------------|
|----------------------------------------------------------------|

 |               |               |               |    
           
|----------------------------------------------------------------|
|0---------------0-----------------------------------------------|
|----------------------------------------------------------------|
|--------------------------------3---------------3---------------|

 |               |               |               |    
           
|----------------0-----------------------------------------------|
|------------------------------------------------2---------------|
|3-------------------------------0-------------------------------|
|----------------------------------------------------------------|

 |               |               |               |    
           
|----------------------------------------------------------------|
|0---------------0-----------------------------------------------|
|----------------------------------------------------------------|
|--------------------------------3---------------3---------------|

 |               |               |               |    
           
|--------------------------------0-------------------------------|
|----------------------------------------------------------------|
|3---------------------------------------------------------------|
|----------------------------------------------------------------|

 |               |               |               |    
           
|--------------------------------0-------------------------------|
|----------------------------------------------------------------|
|3---------------------------------------------------------------|
|----------------------------------------------------------------|

 |               |               |               |    
           
|----------------------------------------------------------------|
|--------------------------------4-------------------------------|
|2---------------------------------------------------------------|
|----------------------------------------------------------------|

 |               |               |               |    
           
|----------------------------------------------------------------|
|----------------------------------------------------------------|
|----------------------------------------------------------------|
|0-------------------------------0-------------------------------|

 |               |               |               |    
           
|----------------------------------------------------------------|
|----------------------------------------------------------------|
|----------------------------------------------------------------|
|0-------------------------------0-------------------------------|

 |               |               |               |    
           
|----------------------------------------------------------------|
|----------------------------------------------------------------|
|0-------------------------------0-------------------------------|
|----------------------------------------------------------------|

 |               |               |               |    
           
|----------------------------------------------------------------|
|0---------------------------------------------------------------|
|--------------------------------0-------------------------------|
|----------------------------------------------------------------|

 |               |               |               |    
           
|--------------------------------2-------------------------------|
|0---------------------------------------------------------------|
|----------------------------------------------------------------|
|----------------------------------------------------------------|

 |               |               |               |    
           
|----------------------------------------------------------------|
|--------------------------------4-------------------------------|
|2---------------------------------------------------------------|
|----------------------------------------------------------------|

 |               |               |               |    
           
|----------------------------------------------------------------|
|----------------------------------------------------------------|
|--------------------------------2-------------------------------|
|0---------------------------------------------------------------|

 |               |               |               |    
           
|----------------------------------------------------------------|
|----------------------------------------------------------------|
|0---------------------------------------------------------------|
|--------------------------------0-------------------------------|

 |               |               |               |    
           
|----------------------------------------------------------------|
|--------------------------------2-------------------------------|
|0---------------------------------------------------------------|
|----------------------------------------------------------------|

 |               |               |               |    
           
|----------------------------------------------------------------|
|----------------------------------------------------------------|
|0-------------------------------3-------------------------------|
|----------------------------------------------------------------|

 |               |               |               |    
           
|----------------------------------------------------------------|
|0-------------------------------0-------------------------------|
|----------------------------------------------------------------|
|----------------------------------------------------------------|

 |               |               |               |    
           
|--------------------------------2-------------------------------|
|0---------------------------------------------------------------|
|----------------------------------------------------------------|
|----------------------------------------------------------------|

 |               |               |               |    
           
|----------------------------------------------------------------|
|--------------------------------0-------------------------------|
|----------------------------------------------------------------|
|3---------------------------------------------------------------|

 |               |               |               |    
           
|--------------------------------0-------------------------------|
|----------------------------------------------------------------|
|3---------------------------------------------------------------|
|----------------------------------------------------------------|

 |               |               |               |    
           
|--------------------------------0-------------------------------|
|----------------------------------------------------------------|
|3---------------------------------------------------------------|
|----------------------------------------------------------------|

 |               |               |               |    
           
|----------------------------------------------------------------|
|--------------------------------4-------------------------------|
|2---------------------------------------------------------------|
|----------------------------------------------------------------|

 |               |               |               |    
           
|----------------------------------------------------------------|
|----------------------------------------------------------------|
|----------------------------------------------------------------|
|0-------------------------------0-------------------------------|

 |               |               |               |    
           
|----------------------------------------------------------------|
|----------------------------------------------------------------|
|--------------------------------2-------------------------------|
|0---------------------------------------------------------------|

 |               |               |               |    
           
|----------------------------------------------------------------|
|----------------------------------------------------------------|
|0-------------------------------0-------------------------------|
|----------------------------------------------------------------|

 |               |               |               |    
           
|----------------------------------------------------------------|
|0---------------------------------------------------------------|
|--------------------------------0-------------------------------|
|----------------------------------------------------------------|

 |               |               |               |    
           
|--------------------------------2-------------------------------|
|0---------------------------------------------------------------|
|----------------------------------------------------------------|
|----------------------------------------------------------------|

 |               |               |               |    
           
|----------------------------------------------------------------|
|----------------------------------------------------------------|
|----------------------------------------------------------------|
|1-------------------------------1-------------------------------|

 |               |               |               |    
           
|----------------------------------------------------------------|
|----------------------------------------------------------------|
|--------------------------------3-------------------------------|
|2---------------------------------------------------------------|

 |               |               |               |    
           
|----------------------------------------------------------------|
|----------------------------------------------------------------|
|3---------------------------------------------------------------|
|--------------------------------1-------------------------------|

 |               |               |               |    
           
|----------------------------------------------------------------|
|----------------------------------------------------------------|
|--------------------------------0-------------------------------|
|0---------------------------------------------------------------|

 |               |               |               |    
           
|--------------------------------2-------------------------------|
|0---------------------------------------------------------------|
|----------------------------------------------------------------|
|----------------------------------------------------------------|

 |               |               |               |    
           
|----------------------------------------------------------------|
|0---------------------------------------------------------------|
|----------------------------------------------------------------|
|--------------------------------3-------------------------------|

 |               |               |               |    
           
|----------------------------------------------------------------|
|----------------------------------------------------------------|
|3-------------------------------0-------------------------------|
|----------------------------------------------------------------|

 |               |               |               |    
           
|----------------------------------------------------------------|
|0---------------------------------------------------------------|
|----------------------------------------------------------------|
|--------------------------------3-------------------------------|

 |               |               |               |    
           
|----------------------------------------------------------------|
|----------------2---------------3---------------4---------------|
|3---------------------------------------------------------------|
|----------------------------------------------------------------|

 |               |               |               |    
           
|0---------------------------------------------------------------|
|----------------------------------------------------------------|
|----------------------------------------------------------------|
|----------------------------------------------------------------|


Created with TablEdit http://www.tabledit.com/


     
Добавлено: 24.06.2013
Другие материалы по этой песне:
  • Аккорды и текст

Страница создана 24.06.2013
http://primanota.ru/gerald-marks/all-of-me-chords.htm
Привет, Гость.
Предлагаем пройти революционный курс по гитаре.
Подарок от PrimaNota.Ru, забирай!