PrimaNota.ru - самый крупный в мире бесплатный архив песенных текстов, аккордов, табулатур и нот


Georges Moustaki - Natalia - таба, видео

Регистрация Запомнить меня
Войти через:  Facebook Google Twitter Vk Yandex Mail.ru

Georges Moustaki - Natalia - таба, видео

Печатать
Просмотров: 346
Natalia by George Moustaki
http://www.youtube.com/watch?v=7xxIprNB7_k

SONG STRUCTURE
1) PART I   (STRUCTURE A)
2) PART II  (STRUCTURE B)
3) PART I   (STRUCTURE A)
4) PART II  (STRUCTURE B)
5) PART III (STRUCTURE A)
6) PART Iv  (STRUCTURE B)
7) PART I   (STRUCTURE A)
7) PART V   (STRUCTURE B)

PART I (STRUCTURE A)

E|-7-------8---|-7-------8---|-10-------12---|-10-------8---|
B|---0---0---0-|---0---0---0-|----0---0----0-|----0---0---0-|
G|-----0-------|-----0-------|------0--------|------0-------|
D|-------------|-------------|-0-------------|-0------------|
A|-------------|-------------|---------------|--------------|
E|-0-----------|-0-----------|---------------|--------------|

E|-7-------8---|-7---5---3---|-5-------7---|-5-------7-5-|
B|---0---0---0-|---0---0---0-|---4---4---4-|---4---4-----|
G|-----0-------|-------------|-----4-------|-----4-------|
D|-------------|-------------|-4-----------|-4-----------|
A|-------------|-------------|-------------|-------------|
E|-0-----------|-0-----------|-------------|-------------|

E|-3-------5---|-7---5---3---|-2-------3---|-2-------3-2-|
B|---0---0---0-|---0---0---0-|---0---0---0-|---0---0-----|
G|-----0-------|-------------|-----2-------|-----2-------|
D|-------------|-------------|-------------|-------------|
A|-------------|-------------|-2-----------|-2-----------|
E|-0-----------|-------------|-------------|-------------|

PART II (STRUCTURE B)

E|-----------0-|---------0---|---------0---|---------2---|
B|---------0---|-------1---1-|-------1---1-|-------0---0-|
G|-------0-----|-----2-------|-----2-------|-----2-------|
D|-----2-------|---3---------|---2---------|---1---------|
A|---2---------|-3-----------|-0-----------|-2-----------|
E|-0-----------|-------------|-------------|-------------|

PART III (STRUCTURE A)

E|-0-------2---|-3---2---0---|-2-------3---|-2-------3-2-|
B|---0---0---0-|---0---0---0-|---3---3---3-|---3---3-----|
G|-----0-------|-------------|-----2-------|-----3-------|
D|-------------|-------------|-0-----------|-0-----------|
A|-------------|-------------|-------------|-------------|
E|-0-----------|-------------|-------------|-------------|

E|-3-------5---|-7---5---3---|-5-------7---|-5-------7-5-|
B|---0---0---0-|---0---0---0-|---4---4---4-|---4---4-----|
G|-----0-------|-------------|-----4-------|-----4-------|
D|-------------|-------------|-4-----------|-4-----------|
A|-------------|-------------|-------------|-------------|
E|-3-----------|-------------|-------------|-------------|

E|-12-------14---|-15---14---12---|-11----------12----|-11----------12-11-|
B|----0---0----0-|----0----0----0-|----12----12----11-|----12----12-------|
G|------0--------|----------------|-------11----------|-------11----------|
D|---------------|----------------|-------------------|-------------------|
A|---------------|----------------|-0-----------------|-------------------|
E|-0-------------|----------------|-------------------|-0-----------------|

PART IV (STRUCTURE B)

E|-12-------12---|-8---------8----|---------0---|---------2---|
B|----0---0----0-|---10---10---10-|-------1---0-|-------0---0-|
G|------0--------|------9---------|-----2-------|-----2-------|
D|---------------|----------------|---2---------|---1---------|
A|---------------|-0--------------|-0-----------|-2-----------|
E|-0-------------|----------------|-------------|-------------|

PART V (STRUCTURE B)

E|-----------0-|---------0---|---------2---|-----------0-|
B|---------0---|-------1---1-|-------0---0-|---------0---|
G|-------0-----|-----2-------|-----2-------|-------0-----|
D|-----2-------|---3---------|---1---------|-----2-------|
A|---2---------|-3-----------|-2-----------|---2---------|
E|-0-----------|-------------|-------------|-0-----------|
Добавлено: 17.03.2012
Другие материалы по этой песне:

Страница создана 17.03.2012
http://primanota.ru/georges-moustaki/natalia-chords.htm
Привет, Гость.
Предлагаем пройти революционный курс по гитаре.
Подарок от PrimaNota.Ru, забирай!