PrimaNota.ru - самый крупный в мире бесплатный архив песенных текстов, аккордов, табулатур и нот


Жорж Бизе - Carmen - Seguidille - таба, видео

Регистрация Запомнить меня
Войти через:  Facebook Google Twitter Vk Yandex Mail.ru

Жорж Бизе - Carmen - Seguidille - таба, видео

Печатать
Просмотров: 205
Music by George Bizet
Arranged by Alex Mondragon
Transcribed by Alex Mondragon

Gtr I  (E A D G B E) - 'Carmen'
Gtr II (E A D G B E) - 'Accompaniement'

  Q=70  3/8

  Gtr II
  E  E  E    E  E  E    S S  S  S  S  S    E  S S E    E  E  E
|-9-14-16-|-18-19-21-|-22---22-21-19-18-|-16-16-----|----------|
|---------|----------|------------------|-----------|----------|
|---------|----------|------------------|-----------|----------|
|---------|----------|------------------|-----------|----16-18-|
|---------|----------|------------------|-----------|-16-------|
|---------|----------|------------------|-----------|----------|
 
 
  Gtr II
   E  E  E    S S  S  S  S  S    E  S S E   E  S S  S S
|----------|------------------|-----------|-------------|
|----------|------------------|-----------|-------------|
|----------|------21----------|-----------|---15---15---|
|-20-21-23-|-24---24-23-21-19-|-17-17-----|---16---16---|
|----------|------------------|-----------|---16---16---|
|----------|------------------|-----------|---18--------|
 
 
  Gtr I
  W             W             W             E  E    E
|-------------|-------------|-------------|----2----4---|
|-------------|-------------|-------------|-2-----------|
|-------------|-------------|-------------|-------------|
|-------------|-------------|-------------|-------------|
|-------------|-------------|-------------|-------------|
|-------------|-------------|-------------|-------------|
|
| Gtr II
| E  S S  S S   E  S S  S S   E  S S  S S   E  S S  S S
|-------------|-------------|-------------|-------------|
|-------------|-------------|-------------|-------------|
|---15---15---|---15---15---|---15---15---|---15---15---|
|---16---16---|---16---16---|---16---16---|---16---16---|
|---16---16---|---16---16---|---16---16---|---16---16---|
|---18--------|---18--------|---18--------|---18--------|
 
 
  E  E    E      S S  S  S  S  S   Q       E
|-6--7----9---|-10---12----------|--------------|
|-------------|------15-14-12-10-|-8------------|
|-------------|------------------|--------------|
|-------------|------------------|--------------|
|-------------|------------------|--------------|
|-------------|------------------|--------------|
|
| E  S S  S S    E    S  S  S  S   E  S S  S S
|-------------|------------------|--------------|
|-------------|------------------|--------------|
|---15---15---|------16----16----|---16---16----|
|---16---16---|------17----17----|---17---17----|
|---16---16---|------17----17----|---17---17----|
|---18--------|------19----------|---19---------|
 
 
  S  S  E    E      S  S  E    E      S  S  Q
|-7--9-----------|--9-10-----------|----10-----------|
|---12--8----8---|----14-10---10---|-10--------------|
|----------------|-----------------|-----------------|
|----------------|-----------------|-------12--------|
|----------------|-----------------|-----------------|
|----------------|-----------------|-----------------|
|
| E     S S  S S    S  S  S S  S S    S  S  S S  S S
|----------------|-----------------|-----------------|
|----------------|-----------------|-------10---10---|
|------16---16---|-------14---14---|-12----11---11---|
|------17---17---|-17----17---17---|-------12---12---|
|------17---17---|-------16---16---|-------12--------|
|------19--------|-------17--------|-----------------|
 
 
   +E     E    E      E  E    E     E  E    E
|------------------|----10----8---|-7--5----3-----|
|------------------|--------------|---------------|
|------------------|-12-----------|---------------|
|-(12)--------12---|--------------|---------------|
|------------------|--------------|---------------|
|------------------|--------------|---------------|
|
|   S  S  S S  S S    E  S S  S S   E  S S  S S
|------------------|--------------|---------------|
|---8----10---10---|----12---12---|---12---12-----|
|--------11---11---|----12---12---|---12---12-----|
|--------12---12---|----12--------|---12----------|
|--------12--------|--------------|---------------|
|------------------|--------------|---------------|
 
 
  S S  E    E     E  E    E   S S  Q          +Q.
|------3----2---|-----------|------2--------|-(2)-----------|
|-1-1-----------|-5--3----1-|-0-3-----------|---------------|
|---------------|-----------|---------------|---------------|
|---------------|-----------|---------------|---------------|
|---------------|-----------|---------------|---------------|
|---------------|-----------|---------------|---------------|
|
| E    S S  S S   E  S S  E   E    S S  S S    E   S S  S S
|---------------|-----------|---------------|---------------|
|-----13---13---|---13---13-|---------------|---------------|
|-----12---12---|---12---12-|-----11---11---|-----11---11---|
|-----14---14---|---14---14-|-----12---12---|-----12---12---|
|-----15--------|---15------|-----14---14---|-----13---13---|
|---------------|-----------|-----14--------|-----14--------|
 
 
  +E   E    S S   S S  S S  S  S    E  Q
|-(2)-------2-1-|-2-4--6-7--9-10-|--------------|
|---------------|----------------|-12-----------|
|---------------|----------------|--------------|
|---------------|----------------|--------------|
|---------------|----------------|----14--------|
|---------------|----------------|--------------|
|
|  E   S S  S S   E    S S  S  S    E  S S  S S
|---------------|----------------|--------------|
|---------------|----------------|--------------|
|-----11---11---|-----11---11----|----11---11---|
|-----12---12---|-----14---14----|----12---12---|
|-----12---12---|-----13---13----|----14---14---|
|-----14--------|-----14---------|----14--------|
 
 
   +Q           +S  S    W                 W
|---------------------|-----------------|-----------------|
|---------------------|-----------------|-----------------|
|---------------------|-----------------|-----------------|
|---------------------|-----------------|-----------------|
|-(14)---------(14)---|-----------------|-----------------|
|---------------------|-----------------|-----------------|
|
|   S   S  S S   S  S    S  S  S S  S S    S  S  S S  S S
|--12--15-19----19----|-------19---19---|-------19---19---|
|---------20----20----|----19-19---19---|----17-17---17---|
|---------21----21----|-19----19---19---|-18----18---18---|
|---------------------|-----------------|-----------------|
|---------------------|-----------------|-----------------|
|---------------------|-----------------|-----------------|
 
 
   W                 W                 W
|-----------------|-----------------|-----------------|
|-----------------|-----------------|-----------------|
|-----------------|-----------------|-----------------|
|-----------------|-----------------|-----------------|
|-----------------|-----------------|-----------------|
|-----------------|-----------------|-----------------|
|
|  S  S  S S  S S    S  S  S S  S S    S  S  S S  S S
|----14-19---19---|-------19---19---|-------18---18---|
|-15----19---19---|----18-18---18---|----18-18---18---|
|-------19---19---|-19----19---19---|-19----19---19---|
|-----------------|-----------------|-----------------|
|-----------------|-----------------|-----------------|
|-----------------|-----------------|-----------------|
 
 
   W                 S  S  S  S  S  S    S  S  Q           E  S  S  S  S
|-----------------|-------------------|-----------------|----------------|
|-----------------|-------------------|-10-10-10--------|----------------|
|-----------------|----------11----11-|-----------------|-------11----11-|
|-----------------|-12-12-12----12----|-----------------|-12-12----12----|
|-----------------|-------------------|-----------------|----------------|
|-----------------|-------------------|-----------------|----------------|
|
|  S  S  S S  S S    E     S  S  S  S    E     S S  S S    E  S  S  S  S
|-------17---17---|-------------------|-----------------|----------------|
|----17-17---17---|-------------------|-----------------|----------------|
|-18----18---18---|-------14----14----|-------14---14---|----15----15----|
|-----------------|-------16----16----|-------16---16---|----16----16----|
|-----------------|-------17----17----|-------17---17---|----17----17----|
|-----------------|-------17----------|-------17--------|----18----------|
 
 
   S  S  E    S S    S  S  S  S  S  S    S  S  S  S  S  S
|-----------------|-------------------|----------------------|
|-11-11-11---11---|-------------------|-12-12-12-12----12----|
|-----------------|----------11----11-|----------------------|
|-----------------|-12-12-12----12----|----------------------|
|-----------------|-------------------|----------------------|
|-----------------|-------------------|----------------------|
|
|  E     S S  S S    E     S  S  S  S    E     S  S  S  S
|-----------------|-------------------|----------------------|
|-----------------|-------------------|----------------------|
|-------15---15---|-------16----16----|-------16----16-------|
|-------16---16---|-------16----16----|-------16----16-------|
|-------17---17---|-------17----17----|-------17----17-------|
|-------18--------|-------19----------|-------19-------------|
 
 
   S  S  S  S  S  S    Q.            +E     E     E       E     S  S  S  S
|-------------------|-------------|--------------------|-------------------|
|-14-12-14-12-14-12-|-10----------|-(10)---------------|----------10-10-10-|
|-------------------|-------------|--------------------|-------------------|
|-------------------|-------------|--------------------|-------------------|
|-------------------|-------------|--------------------|-------------------|
|-------------------|-------------|--------------------|-------------------|
|
|  E     S  S  S  S    E  S S S S     S  S  S  S  S  S    S  S  E     E
|--------5-----5----|-----5---5---|--10----10-14----14-|-17-17-17----------|
|--------8-----8----|-----5---6---|--------------15----|-------------------|
|--------9-----9----|-----6---6---|--------------------|-------------------|
|--------7----------|-----7-------|--------------------|-------------------|
|-------------------|-------------|--------------------|-------------------|
|-------------------|-------------|--------------------|-------------------|
 
 
   Q          +S   S    E     S  S  S  S    Q         +S   S
|--------------------|-------------------|--9---------(9)-------|
|-11---------(11)----|----------11-10-11-|----------------------|
|--------------------|-------------------|----------------------|
|--------------------|-------------------|----------------------|
|--------------------|-------------------|----------------------|
|--------------------|-------------------|----------------------|
|
|  S S  S  S   S   S    S  S  S  S  E       S S  S  S  S   S
|---------14------14-|-18-18-18----------|----------------------|
|-15---15-----15-----|-------------------|---------19-----19----|
|--------------------|-------------------|-19---19----19--------|
|--------------------|-------------------|----------------------|
|--------------------|-------------------|----------------------|
|--------------------|-------------------|----------------------|
 
 
   E     E S S   S S S  S  S S    Q     E      S  S  E    E
|--7-----------|-------------9-|-10---------|-10-12-----------|
|--------------|-5-7-8-10-10---|------------|----15-14---15---|
|------------7-|---------------|------------|-----------------|
|--------------|---------------|------------|-----------------|
|--------------|---------------|------------|-----------------|
|--------------|---------------|------------|-----------------|
|
|  S  S  E E     E   S  S  S S    E S S S S    E     S S  S S
|-19-19-19-----|-----5-----5---|----5---5---|-------10---10---|
|--------------|-----8-----8---|----7---7---|--------8----8---|
|--------------|-----9-----9---|----7---7---|--------7--------|
|--------------|-----7---------|----7-------|-----------------|
|--------------|---------------|------------|-----------------|
|--------------|---------------|------------|-----------------|
 
 
   Q       +S  S    E  E    E      Q      S S
|----------------|--------------|-------------|
|-16------(16)---|-17-16---17---|-------------|
|----------------|--------------|-------------|
|----------------|--------------|-19-----19---|
|----------------|--------------|-------------|
|----------------|--------------|-------------|
|
|  E  S S   S  S    E  S S  S S    E S S  S S
|----11----11----|----12---12---|----2----2---|
|----14----14----|----14---14---|----3----3---|
|----12----12----|----12---12---|----5----5---|
|----13----------|----14--------|-------------|
|----------------|--------------|-------------|
|----------------|--------------|-------------|
 
 
   S  S  E    E      Q       E      E  E    E      Q     E
|-----------------|--------------|--------------|------------|
|----17-----------|--------------|--------------|------------|
|-19-19-18---19---|-20------20---|-21-20---21---|------------|
|-----------------|--------------|--------------|-19---------|
|-----------------|--------------|--------------|------------|
|-----------------|--------------|--------------|------------|
|
|  E     S S  S S    E  S S  S S    E  S S  S S    E S S S S
|-------10---10---|----11---11---|----12---12---|----2---2---|
|--------8----8---|----14---14---|----14---14---|----3---3---|
|--------7--------|----12---12---|----12---12---|----5---5---|
|-----------------|----13--------|----14--------|------------|
|-----------------|--------------|--------------|------------|
|-----------------|--------------|--------------|------------|
 
 
  E S S  S  S   S S E  S  S   E S S  S  S   S S
|-------------|-------------|-------------|--------------|
|-------------|-------------|-------------|--------------|
|-3-5-7--5--3-|-2-0---------|-------------|--------------|
|-------------|-----4--5----|-7-8-7--5----|--------------|
|-------------|-------------|-----------8-|-6-5----------|
|-------------|-------------|-------------|--------------|
|
| Q     +S  S   Q     +S  S   Q     +S  S   Q    +S  S
|-6-----(6)---|-5-----(5)---|-3-----(3)---|-1----(1)-----|
|-6-----(6)---|-4-----(4)---|-3-----(3)---|-3----(3)-----|
|-7-----(7)---|-5-----(5)---|-3-----(3)---|-2----(2)-----|
|-------------|-------------|-------------|--------------|
|-------------|-------------|-------------|--------------|
|-------------|-------------|-------------|--------------|
 
 
  S  S  S  S  S   S    S  S  S  S  S   S    S S S S S S
|-------------------|--------------------|------8---6---|
|---11-10-11-13--15-|-16-18-16-15-13--11-|-10-8-------4-|
|-------------------|--------------------|--------------|
|-------------------|--------------------|--------------|
|-------------------|--------------------|--------------|
|-------------------|--------------------|--------------|
|
| Q          +S   S    Q          +S   S    Q       E
|-6----------(6)----|--5----------(5)----|--3-----------|
|-6----------(6)----|--4----------(4)----|--4-----------|
|-7----------(7)----|--5----------(5)----|--3-----------|
|-------------------|--------------------|--------------|
|-------------------|--------------------|--------------|
|-------------------|--------------------|--------------|
 
 
  Q   E   E  E E   E  Q      E  E  E    E  E E   E E E
|-------|----6---|---12---|----------|---------|---6-----|
|-3-----|-4----4-|-5------|----11----|----10---|-----4---|
|-------|--------|--------|----------|---------|-8-------|
|-------|--------|--------|-13----13-|-12------|---------|
|-------|--------|--------|----------|---------|---------|
|-------|--------|--------|----------|---------|---------|
|
| E E E   E  Q     E  E E    E  Q       E  E E   E Q
|---5---|---11---|--------|-----7----|-----5---|---7-----|
|-3---3-|-4------|---11---|----------|-------3-|-4-------|
|-------|--------|-9----9-|--8-------|--7------|---------|
|-------|--------|--------|----------|---------|---------|
|-------|--------|--------|----------|---------|---------|
|-------|--------|--------|----------|---------|---------|
 
 
  E  Q      E  E  E    Q   S  S    E  S  S  S  S    E  S S  S  S
|---12---|----------|-----------|----------------|---------------|
|-5------|----11----|-----------|----------------|---------------|
|--------|----------|-----------|----------------|---------------|
|--------|-13----13-|-12--13-13-|-12-12-12-13-13-|-12-12---13-13-|
|--------|----------|-----------|----------------|---------------|
|--------|----------|-----------|----------------|---------------|
|
| E  E E    E  Q       Q   E       Q        E       Q       E
|----6---|----11----|-----------|----------------|---------------|
|-5----5-|--4-------|-----------|----------------|---------------|
|--------|----------|-----------|----------------|---------------|
|--------|----------|-12--13----|-12-------13----|-12------13----|
|--------|----------|-----------|----------------|---------------|
|--------|----------|-----------|----------------|---------------|
 
 
   E  S  S  S  S    Q.                +Q        +S  S    E  E    E
|----------------|-----------------|------------------|---------------|
|----------------|-----------------|------------------|----------9----|
|----------------|-----------------|------------------|----11---------|
|-12-12-12-13-13-|-12--------------|-(12)------(12)---|-11------------|
|----------------|-----------------|------------------|---------------|
|----------------|-----------------|------------------|---------------|
|
|  Q        E       S  S  S S  S S     E   S S   S  S    E  S S  S S
|----------------|-----------------|------------------|---------------|
|----------------|-------10---10---|------10----10----|----11---11----|
|----------------|-------11---11---|------11----11----|----11---11----|
|-12-------13----|-12----12---12---|------10----10----|----11---11----|
|----------------|-------12--------|------12----------|----13---------|
|----------------|-----------------|------------------|---------------|
 
 
   E  E    E      S S  S  S  S  S    Q       E      S  S  E    E
|--------------|------------------|--------------|-----------------|
|-11-12---14---|-15---17----------|--------------|-12-14-----------|
|--------------|------19-18-16-14-|-12-----------|----16-12---12---|
|--------------|------------------|--------------|-----------------|
|--------------|------------------|--------------|-----------------|
|--------------|------------------|--------------|-----------------|
|
|  E  S S  S S    E    S  S  S  S    E  S S  S S    E     S S  S S
|--------------|------------------|--------------|-----------------|
|----11---11---|------12----12----|----12---12---|-------12---12---|
|----11---11---|------12----12----|----12---12---|-------12---12---|
|----11---11---|------12----12----|----12---12---|-------12---12---|
|----13--------|------14----------|----14--------|-------14--------|
|--------------|------------------|--------------|-----------------|
 
 
   S  S  E    E      S  S  Q           +E   E    E
|-----------------|-----------------|-----------------|
|-14-15-----------|----15-----------|-----------------|
|----18-14---14---|-14--------------|-----------------|
|-----------------|-----------------|-----------------|
|-----------------|-------17--------|-(17)------17----|
|-----------------|-----------------|-----------------|
|
|  E     S S  S S    E     S S  S S     E   S S  S S
|-----------------|-----------------|-----------------|
|-------10---10---|-------10---10---|------10---10----|
|-------12---12---|-------11---11---|------11---11----|
|-------11---11---|-------12---12---|------12---12----|
|-------12--------|-------12--------|------12---------|
|-----------------|-----------------|-----------------|
 
 
   E   E  E     E   E   E       S   S E E     E  E E     S  S  Q
|-----------|----------------|------------|----------|---------2--------|
|-----15-13-|--12--10---8----|--------8-7-|---5--3-1-|---0--3-----------|
|-----------|----------------|------------|----------|------------------|
|-17--------|----------------|-10--10-----|----------|------------------|
|-----------|----------------|------------|----------|------------------|
|-----------|----------------|------------|----------|------------------|
|
|  Q.          +Q      +S  S    Q.           +Q.        +E     S S  S S
|-10--------|-(10)----(10)---|-12---------|-(12)-----|-(12)-------------|
|-12--------|-(12)----(12)---|-13---------|-(13)-----|-(13)-------------|
|-12--------|-(12)----(12)---|-12---------|-(12)-----|-(12)---11---11---|
|-----------|----------------|------------|----------|--------12---12---|
|-----------|----------------|------------|----------|--------14---14---|
|-----------|----------------|------------|----------|--------14--------|
 
 
  +Q       +S  S    E   S S S S    S S S  S  S  S    Q.
|-(2)------(2)---|------2-1-2-4-|--6-7-9-10-12-14-|------------|
|----------------|--------------|-----------------|-12---------|
|----------------|--------------|-----------------|------------|
|----------------|--------------|-----------------|------------|
|----------------|--------------|-----------------|------------|
|----------------|--------------|-----------------|------------|
|
|  E   S S  S  S    S S E   E      S S E     E       S  S E E
|----------------|--------------|-18--------------|-19---------|
|----------------|--------------|-19--------------|-19---------|
|-----11---11----|-11-----------|-21--------------|-19---------|
|-----12---12----|-12-----------|-----------------|-21---------|
|-----13---13----|-12-----------|-----------------|------------|
|-----14---------|--------------|-----------------|------------|
 
 
   +E      E    E      W                 W
|-------------------|-----------------|-----------------*|
|-(12)--------------|-----------------|-----------------*|
|-------------------|-----------------|-----------------*|
|-------------------|-----------------|-----------------*|
|-------------------|-----------------|-----------------*|
|-------------------|-----------------|-----------------*|
|
|   S   S  S S  S S    S  S  S S  S S    S  S  S S  S S
|------15-19---19---|-------19---19---|-------19---19---*|
|--17-----20---20---|----19-19---19---|----17-17---17---*|
|---------21---21---|-19----19---19---|-18----18---18---*|
|-------------------|-----------------|-----------------*|
|-------------------|-----------------|-----------------*|
|-------------------|-----------------|-----------------*|
 
 
 
 
Duration Legend
---------------

W - whole    H - half    Q - quarter    E - 8th    S - 16th
+ - note tied to previous    . - note dotted
Duration letters will always appear directly above the note/fret number
they represent the duration for.  Duration letters with no fret number
below them represent rests.
 
http://powertab.guitarnetwork.org               *
***************************************************

Добавлено: 11.04.2012
Другие материалы по этой песне:
  • Аккорды и текст

Страница создана 11.04.2012
http://primanota.ru/georges-bizet/carmen-seguidille-chords.htm
Привет, Гость.
Предлагаем пройти революционный курс по гитаре.
Подарок от PrimaNota.Ru, забирай!