PrimaNota.ru - самый крупный в мире бесплатный архив песенных текстов, аккордов, табулатур и нот


Жорж Бизе - Carmen - Aragonaise - таба, видео

Регистрация Запомнить меня
Войти через:  Facebook Google Twitter Vk Yandex Mail.ru

Жорж Бизе - Carmen - Aragonaise - таба, видео

Печатать
Просмотров: 359
#----------------------------------PLEASENOTE---------------------------------#
#This file is the author's own work and represents their interpretation of the#
#song. You may only use this file for private study, scholarship, or research.#
#-----------------------------------------------------------------------------#

                          CARMEN SUITE - 1. ARAGONAISE
                          As recorded by Georges Bizet

Music by Georges Bizet
Arranged by William Kanengeiser of the L.A. Guitar Quartet
Transcribed by Alex Mondragon 

Gtr I   - D A D G B E
Gtr II  - E A D G B E
Gtr III - E A D G B E

  Allegro vivo Q=120 
 3/8 
  Gtr I 
   E S S e   e e e    E S S e   e e e    E S S e   e e e    E S S e   e e e 
|-^5-5-5-5-|-6-8-6-|-^5-5-5-5-|-3-1-3-|-^5-5-5-5-|-6-8-6-|-^5-5-5-5-|-3-1-3-| 
|-^5-5-5-5-|-6-8-6-|-^5-5-5-5-|-3-1-3-|-^5-5-5-5-|-6-8-6-|-^5-5-5-5-|-3-1-3-| 
|-^6-6-6-6-|-7-9-7-|-^6-6-6-6-|-3-2-3-|-^6-6-6-6-|-7-9-7-|-^6-6-6-6-|-3-2-3-| 
|-^7-7-7-7-|-------|-^7-7-7-7-|-------|-^7-7-7-7-|-------|-^7-7-7-7-|-------| 
|-^0-0-0-0-|-------|-^0-0-0-0-|-------|-^0-0-0-0-|-------|-^0-0-0-0-|-------| 
|----------|-------|----------|-------|----------|-------|----------|-------| 
| 
| Gtr II 
|  E S S e   e e e    E S S e   e e e    E S S e   e e e    E S S e   e e e 
|--0-0-0-0-|-------|--0-0-0-0-|-------|--0-0-0-0-|-------|--0-0-0-0-|-------| 
|--2-2-2-2-|-------|--2-2-2-2-|-------|--2-2-2-2-|-------|--2-2-2-2-|-------| 
|--2-2-2-2-|-------|--2-2-2-2-|-------|--2-2-2-2-|-------|--2-2-2-2-|-------| 
|--2-2-2-2-|-------|--2-2-2-2-|-------|--2-2-2-2-|-------|--2-2-2-2-|-------| 
|--0-0-0-0-|-------|--0-0-0-0-|-1-3-1-|--0-0-0-0-|-------|--0-0-0-0-|-1-3-1-| 
|----------|-3-1-3-|----------|-------|----------|-3-1-3-|----------|-------| 
  
  
     Gtr III 
   E S S E   E E E   E S S E   E E E   E S S E   E E E   E S S E   E E E 
|-^5-------|-------|---------|-------|---------|-------|---------|-------| 
|-^5-------|-------|---------|-------|---------|-------|---------|-------| 
|-^6-x-x-x-|-x-x-x-|-x-x-x-x-|-x-x-x-|-x-x-x-x-|-x-x-x-|-x-x-x-x-|-x-x-x-| 
|-^7-------|-------|---------|-------|---------|-------|---------|-------| 
|-^0-------|-------|---------|-------|---------|-------|---------|-------| 
|----------|-------|---------|-------|---------|-------|---------|-------| 
| 
|  E E   E   W       W         W       W         W       W         W 
|--0-------|-------|---------|-------|---------|-------|---------|-------| 
|--2-------|-------|---------|-------|---------|-------|---------|-------| 
|--2-------|-------|---------|-------|---------|-------|---------|-------| 
|--2-------|-------|---------|-------|---------|-------|---------|-------| 
|--0-------|-------|---------|-------|---------|-------|---------|-------| 
|----------|-------|---------|-------|---------|-------|---------|-------| 
  
  
                        Gtr I 
  E S S E   E  E  E     W       W         W       W         W       W 
|---------|-----------|------|----------|------|----------|------|---------| 
|---------|-----------|------|----------|------|----------|------|---------| 
|-x-x-x-x-|-x---------|------|----------|------|----------|------|---------| 
|---------|-----------|------|----------|------|----------|------|---------| 
|---------|-----------|------|----------|------|----------|------|---------| 
|---------|-----------|------|----------|------|----------|------|---------| 
| 
| W         E  E.   S   Q  E   +E  E. S   Q  E   +E  E. S   Q  E   +E  E E 
|---------|-----------|------|----------|------|----------|------|---------| 
|---------|---10----8-|-8--6-|-(6)-5--3-|-3--2-|-(2)-3--5-|------|---------| 
|---------|-----------|------|----------|------|----------|-3--3-|-(3)-5-3-| 
|---------|-----------|------|----------|------|----------|------|---------| 
|---------|-----------|------|----------|------|----------|------|---------| 
|---------|-----------|------|----------|------|----------|------|---------| 
  
  
  W       S S S S S S   S S S S S S   S S S S S S 
|-------|-------------|-------------|-------------| 
|-------|-------------|-2h3-2-3-2-3-|-5h6-5-6-5-6-| 
|-------|-2h4-2-4-2-4-|-------------|-------------| 
|-------|-------------|-------------|-------------| 
|-------|-------------|-------------|-------------| 
|-------|-------------|-------------|-------------| 
| 
|     Gtr III 
| Q.      E   E   E     E   S S E     E   E   E 
|-------|-------------|-------------|-------------| 
|-------|-------------|-------------|-------------| 
|-2---x-|-x---x---x---|-x---x-x-x---|-x---x---x---| 
|-------|-------------|-------------|-------------| 
|-------|-------------|-------------|-------------| 
|-------|-------------|-------------|-------------| 
  Q   E 
  
  
  S S S S S S   S S S S S S   S S S S S S   S S S S S S 
|-3h5-3-5-3-5-|-6h8-6-8-6-5-|-3h5-3-5-3---|---------------| 
|-------------|-------------|-----------6-|-5h6-5-3-------| 
|-------------|-------------|-------------|---------5-3---| 
|-------------|-------------|-------------|---------------| 
|-------------|-------------|-------------|---------------| 
|-------------|-------------|-------------|---------------| 
| 
| E   S S E     E   E   E     E   S S E     E   E   E 
|-------------|-------------|-------------|---------------| 
|-------------|-------------|-------------|---------------| 
|-x---x-x-x---|-x---x---x---|-x---x-x-x---|-x---x---x-----| 
|-------------|-------------|-------------|---------------| 
|-------------|-------------|-------------|---------------| 
|-------------|-------------|-------------|---------------| 
  
  
     Gtr III 
  Q.         E  E  E     W       W         W       W        W           W 
|----------|-----------|------|----------|------|---------|-----------|------| 
|----------|-----------|------|----------|------|---------|-----------|------| 
|-2--x-x-x-|-x---------|------|----------|------|---------|-----------|------| 
|----------|-----------|------|----------|------|---------|-----------|------| 
|----------|-----------|------|----------|------|---------|-----------|------| 
|----------|-----------|------|----------|------|---------|-----------|------| 
| E  S S E 
| 
|            Gtr II 
|                                                           |-3-| 
| E  E   E   E  E.   S   Q  E   +E  E. S   Q  E   +E  E E   S S S E E   Q  E 
|----------|-----------|------|----------|------|---------|-----------|------| 
|----------|---10----8-|-8--6-|-(6)-5--3-|-3--2-|-(2)-3-5-|-----------|-3--2-| 
|-x--------|-----------|------|----------|------|---------|-3h5p3-2-3-|------| 
|----------|-----------|------|----------|------|---------|-----------|------| 
|----------|-----------|------|----------|------|---------|-----------|------| 
|----------|-----------|------|----------|------|---------|-----------|------| 
  
  
            Gtr I 
    W       S S S S S S   S S S S S S   S S S S S S 
|---------|-------------|-------------|-------------| 
|---------|-------------|-2h3-2-3-2-3-|-5h6-5-6-5-6-| 
|---------|-2h4-2-4-2-4-|-------------|-------------| 
|---------|-------------|-------------|-------------| 
|---------|-------------|-------------|-------------| 
|---------|-------------|-------------|-------------| 
| 
|       Gtr III 
| a Q.      E   E   E     E   S S E     E   E   E 
|---------|-------------|-------------|-------------| 
|-2-------|-------------|-------------|-------------| 
|---2---x-|-x---x---x---|-x---x-x-x---|-x---x---x---| 
|---------|-------------|-------------|-------------| 
|---------|-------------|-------------|-------------| 
|---------|-------------|-------------|-------------| 
    Q   E 
  
  
  S S S S S S   S S S S S S   S S S S S S   S S S S S S 
|-3h5-3-5-3-5-|-6h8-6-8-6-5-|-3h5-3-5-3---|--------------| 
|-------------|-------------|-----------6-|-5h6-5-3------| 
|-------------|-------------|-------------|---------5-3--| 
|-------------|-------------|-------------|--------------| 
|-------------|-------------|-------------|--------------| 
|-------------|-------------|-------------|--------------| 
| 
| E   S S E     E   E   E     E   S S E     E   E   E 
|-------------|-------------|-------------|--------------| 
|-------------|-------------|-------------|--------------| 
|-x---x-x-x---|-x---x---x---|-x---x-x-x---|-x---x---x----| 
|-------------|-------------|-------------|--------------| 
|-------------|-------------|-------------|--------------| 
|-------------|-------------|-------------|--------------| 
  
  
  Q.         E  S  S  S  S    E E     E   E  S  S  S  S 
|----------|---17-18-17-15-|-13---------|---13-15-13-12-| 
|----------|---------------|------------|---------------| 
|-2--------|---------------|------------|---------------| 
|----------|---------------|------------|---------------| 
|----------|---------------|------------|---------------| 
|----------|---------------|------------|---------------| 
| 
|                            Gtr II 
|                               |-3-| 
| E  S S E   E  E     E       E S S S E   E  E     E 
|----------|---------------|------------|-1-------------| 
|----------|---------------|--1-1-1-1-1-|-2-------------| 
|-x--x-x-x-|-x-------------|--2-2-2-2-2-|-2-------------| 
|----------|---------------|--3-3-3-3-3-|-3-------------| 
|----------|---------------|--3-3-3-3-3-|---------------| 
|----------|---------------|--1-1-1-1-1-|---------------| 
  
  
   E E     E   E S S S S   E E E   E E.   S 
|-10---------|-----------|-------|-----------| 
|------------|---6-8-6-5-|-5-3---|-3-5----6--| 
|------------|-----------|-----5-|-----------| 
|------------|-----------|-------|-----------| 
|------------|-----------|-------|-----------| 
|------------|-----------|-------|-----------| 
| 
|                          PM-----------| 
|    |-3-| 
|  E S S S E   E E   E     E E E   E E  E 
|------------|-6---------|-------|-----------| 
|--6-6-6-6-6-|-6---------|-------|-----------| 
|--7-7-7-7-7-|-7---------|---3-3-|---3--3----| 
|--8-8-8-8-8-|-8---------|---2-2-|---2--2----| 
|--8-8-8-8-8-|-8---------|-------|-----------| 
|--6-6-6-6-6-|-6---------|-------|-----------| 
  
  
  E Q     E  S  S  S  S    E  S    S    E   E  S  S  S  S 
|-------|---17-18-17-15-|-15-13---12---13-|---13-15-13-12-| 
|-6-----|---------------|-----------------|---------------| 
|---5---|---------------|-----------------|---------------| 
|-------|---------------|-----------------|---------------| 
|-------|---------------|-----------------|---------------| 
|-------|---------------|-----------------|---------------| 
| 
|   PM| 
|                             |--3---| 
| E E E   E  E     E       E  S S    S  E   E  E     E 
|-------|---------------|-----------------|-1-------------| 
|-------|---------------|--1--1-1----1--1-|-2-------------| 
|---2-2-|---------------|--2--2-2----2--2-|-2-------------| 
|---3-3-|---------------|--3--3-3----3--3-|-3-------------| 
|-------|-3-------------|--3--3-3----3--3-|---------------| 
|-------|-1-------------|--1--1-1----1--1-|---------------| 
  
  
   E  S   S    E   E S S S S   E E E   E E.   S 
|-12-10---9---10-|-----------|-------|----------| 
|----------------|---6h8-6-5-|-3---3-|-5-8----6-| 
|----------------|-----------|---5---|----------| 
|----------------|-----------|-------|----------| 
|----------------|-----------|-------|----------| 
|----------------|-----------|-------|----------| 
| 
|                              PM-----------| 
|     |--3--| 
|  E  S S   S  E   E E   E     E E E   E E  E 
|----------------|-6---------|-------|----------| 
|--6--6-6---6--6-|-6---------|-------|----------| 
|--7--7-7---7--7-|-7---------|---3-3-|---3--3---| 
|--8--8-8---8--8-|-8---------|---2-2-|---2--2---| 
|--8--8-8---8--8-|-8---------|-------|----------| 
|--6--6-6---6--6-|-6---------|-------|----------| 
  
  
            |-3-| |-3-|             |-3-| |-3-| 
  E E E   E S S S S S S   E E E   E S S S S S S 
|-------|---------------|-5-----|-5-------------| 
|-------|---------5h6h8-|-------|---8p6p5-------| 
|-5-----|---4h6h7-------|-------|---------7p6p4-| 
|-------|-7-------------|-------|---------------| 
|-------|---------------|-------|---------------| 
|-------|---------------|-------|---------------| 
| 
|   PM|     PM----|         PM|     PM----| 
| E E E   E E     E       E E E   E E     E 
|-------|---------------|-------|---------------| 
|---1-1-|---2-----2-----|---1-1-|---2-----2-----| 
|---2-2-|---2-----2-----|---2-2-|---2-----2-----| 
|---3-3-|---5-----5-----|---3-3-|---5-----5-----| 
|-------|---------------|-------|---------------| 
|-------|---------------|-------|---------------| 
  
  
            |-3-| |-3-|              |-3--| |-3--| 
  E E E   E S S S S S S   E E E   E +S  S S S S  S 
|-------|---------------|-5-----|-5-(5)p4h5-7h9h10-| 
|-------|---------5h6h8-|-------|------------------| 
|-------|---4h6h7-------|-------|------------------| 
|-7-----|-7-------------|-------|------------------| 
|-------|---------------|-------|------------------| 
|-------|---------------|-------|------------------| 
| 
|   PM|     PM----|         PM| 
| E E E   E E     E       E E E   E  E      E 
|-------|---------------|-------|------------------| 
|---1-1-|---2-----2-----|---1-1-|-3----------------| 
|---2-2-|---2-----2-----|---2-2-|-2----------------| 
|---3-3-|---5-----5-----|---3-3-|-3----------------| 
|-------|---------------|-------|-2----------------| 
|-------|---------------|-------|------------------| 
  
  
    Q.          +E   E  E    S  S  e  e    e  e  e 
|--12--------|-(12)-13-15-|-18-17-15-13-|-12-13-10-| 
|------------|------------|-------------|----------| 
|------------|------------|-------------|----------| 
|------------|------------|-------------|----------| 
|------------|------------|-------------|----------| 
|------------|------------|-------------|----------| 
| 
|   E  E  E      E   E  E    S  S  e  e    e  e  e 
|-<12>-0-<5>-|-<12>-------|-------------|----------| 
|------------|----------8-|-11-10--8--6-|--5--6--3-| 
|------------|------10----|-------------|----------| 
|------------|------------|-------------|----------| 
|------------|------------|-------------|----------| 
|------------|------------|-------------|----------| 
  
  
   S  S  e  e   e  e e    S  S e e   e e e 
|-15-13-12-10-|-9-10-7-|-12-10-9-7-|-5-7-4--| 
|-------------|--------|-----------|--------| 
|-------------|--------|-----------|--------| 
|-------------|--------|-----------|--------| 
|-------------|--------|-----------|--------| 
|-------------|--------|-----------|--------| 
| 
|  S  S  e  e   e  e e    S  S e e   e e e 
|-------------|--------|-----------|--------| 
|--8--6--5--3-|-2--3-0-|--5--3-2-0-|--------| 
|-------------|--------|-----------|-2-4-1--| 
|-------------|--------|-----------|--------| 
|-------------|--------|-----------|--------| 
|-------------|--------|-----------|--------| 
  
  
  Q.     W         W       W         W       W         W       W 
|-5----|---------|------|----------|------|----------|------|---------| 
|------|---------|------|----------|------|----------|------|---------| 
|------|---------|------|----------|------|----------|------|---------| 
|------|---------|------|----------|------|----------|------|---------| 
|------|---------|------|----------|------|----------|------|---------| 
|------|---------|------|----------|------|----------|------|---------| 
| 
| W      E  E. S   Q  E   +E  E. S   Q  E   +E  E. S   Q  E   +E  E E 
|------|---------|------|----------|------|----------|------|---------| 
|------|---10--8-|-8--6-|-(6)-5--3-|-3--2-|-(2)-3--5-|------|---------| 
|------|---------|------|----------|------|----------|-3--3-|-(3)-5-3-| 
|------|---------|------|----------|------|----------|------|---------| 
|------|---------|------|----------|------|----------|------|---------| 
|------|---------|------|----------|------|----------|------|---------| 
  
  
  W       S S S S S S   S S S S S S   S S S S S S 
|-------|-------------|-------------|-------------| 
|-------|-------------|-2h3-2-3-2-3-|-5h6-5-6-5-6-| 
|-------|-2h4-2-4-2-4-|-------------|-------------| 
|-------|-------------|-------------|-------------| 
|-------|-------------|-------------|-------------| 
|-------|-------------|-------------|-------------| 
| 
|     Gtr III 
| Q.      E   E   E     E   S S E     E   E   E 
|-------|-------------|-------------|-------------| 
|-------|-------------|-------------|-------------| 
|-2---x-|-x---x---x---|-x---x-x-x---|-x---x---x---| 
|-------|-------------|-------------|-------------| 
|-------|-------------|-------------|-------------| 
|-------|-------------|-------------|-------------| 
  Q   E 
  
  
  S S S S S S   S S S S S S   S S S S S S   S S S S S S 
|-3h5-3-5-3-5-|-6h8-6-8-6-5-|-3h5-3-5-3---|---------------| 
|-------------|-------------|-----------6-|-5h6-5-3-------| 
|-------------|-------------|-------------|---------5-3---| 
|-------------|-------------|-------------|---------------| 
|-------------|-------------|-------------|---------------| 
|-------------|-------------|-------------|---------------| 
| 
| E   S S E     E   E   E     E   S S E     E   E   E 
|-------------|-------------|-------------|---------------| 
|-------------|-------------|-------------|---------------| 
|-x---x-x-x---|-x---x---x---|-x---x-x-x---|-x---x---x-----| 
|-------------|-------------|-------------|---------------| 
|-------------|-------------|-------------|---------------| 
|-------------|-------------|-------------|---------------| 
  
  
     Gtr III             Gtr I 
  Q.         E  E  E     E  E E    E  E  E 
|----------|-----------|----3-2-|--2---------| 
|----------|-----------|----1-1-|--1---------| 
|-2--x-x-x-|-x---------|----2-2-|--2---------| 
|----------|-----------|--------|------------| 
|----------|-----------|--------|------------| 
|----------|-----------|-0------|------------| 
| E  S S E               Q. 
| 
|            Gtr II 
| E  E   E   E  E.   S   Q    E   +E  E.   S 
|----------|-----------|--------|------------| 
|----------|---10----8-|-8----7-|-(7)-7------| 
|-x--------|-----------|--------|----------8-| 
|----------|-----------|-0------|------------| 
|----------|-0---------|--------|------------| 
|----------|-----------|--------|------------| 
  
  
  E  E E    E  E  E       E E E   W 
|--------|-------------|--------|--------| 
|----4-3-|--3----------|--------|--------| 
|----5-5-|--5----------|--8-----|--------| 
|--------|-------------|--5-----|--------| 
|--------|-------------|--6-----|--------| 
|-4------|-------------|--5-----|--------| 
| Q. 
| 
| Q    E   +E  E.    S    E E E   E  E E 
|--------|-------------|--------|--------| 
|--------|-------------|--------|--------| 
|-8----7-|-(7)-7-------|--------|------7-| 
|--------|----------10-|-10-8-7-|-8-10---| 
|-9------|-------------|--------|--------| 
|--------|-------------|--------|--------| 
  
  
                     H.=H                       Q=60          H=H      Q=120 
                                                |-3-| 
  W         W         E  E E   E E E   E E  E   S S S +E  E   E  E E   E  E E 
|--------|---------|--1------|-------|--------|-------------|--------|--------| 
|--------|---------|--3------|-------|--------|-------------|--------|--------| 
|--------|---------|--2------|-------|--------|-------------|--------|--------| 
|--------|---------|--3------|-------|--------|-------------|--------|--------| 
|--------|---------|--0--5-3-|-1-3-0-|--------|-------------|----0---|----0---| 
|--------|---------|---------|-------|-8-5--7-|-3h5p3-(3)-2-|-0----3-|------3-| 
| 
|                                               |-3-| 
| E  E E    E E  E    E  E E   E E E   E E  E   S S S +E  E   Q.       Q. 
|--------|----8----|----10-8-|-6-8-5-|-6------|-------------|--------|--------| 
|------8-|-10---11-|-10------|-------|---8-10-|-6h8p6-(6)-5-|-3------|-3------| 
|-8-10---|---------|---------|-------|--------|-------------|-2------|-2------| 
|--------|---------|---------|-------|--------|-------------|-0------|-0------| 
|--------|---------|---------|-------|--------|-------------|--------|--------| 
|--------|---------|---------|-------|--------|-------------|--------|--------| 
  
  
                        Gtr III 
  E  E E   E  E E   Q   E   E E E   E S S E   E E E   E S S E   E E E 
|--------|--------|-------|-------|---------|-------|---------|-------| 
|--------|--------|-------|-------|---------|-------|---------|-------| 
|--------|--------|-----x-|-x-x-x-|-x-x-x-x-|-x-x-x-|-x-x-x-x-|-x-x-x-| 
|--------|--------|-------|-------|---------|-------|---------|-------| 
|--------|--------|-------|-------|---------|-------|---------|-------| 
|----5p2-|----3p0-|-------|-------|---------|-------|---------|-------| 
| 
| Q.       Q.       Q.      W       W         W       W         W 
|--------|--------|-------|-------|---------|-------|---------|-------| 
|--------|--------|-------|-------|---------|-------|---------|-------| 
|-5------|-3------|-2-----|-------|---------|-------|---------|-------| 
|-5------|-3------|-2-----|-------|---------|-------|---------|-------| 
|-3------|-1------|-0-----|-------|---------|-------|---------|-------| 
|--------|--------|-------|-------|---------|-------|---------|-------| 
  
  
  E S S E   E E E   E S S E   E  E  E     W       W         W       W 
|---------|-------|---------|-----------|------|----------|------|-----------| 
|---------|-------|---------|-----------|------|----------|------|-----------| 
|-x-x-x-x-|-x-x-x-|-x-x-x-x-|-x---------|------|----------|------|-----------| 
|---------|-------|---------|-----------|------|----------|------|-----------| 
|---------|-------|---------|-----------|------|----------|------|-----------| 
|---------|-------|---------|-----------|------|----------|------|-----------| 
| 
| W         W       W         E  E.   S   Q  E   +E  E. S   Q  E   +E  E. S 
|---------|-------|---------|-----------|------|----------|------|-----------| 
|---------|-------|---------|---10----8-|-8--6-|-(6)-5----|------|-----------| 
|---------|-------|---------|-----------|------|--------7-|-7--6-|-(6)-7--9--| 
|---------|-------|---------|-----------|------|----------|------|-----------| 
|---------|-------|---------|-----------|------|----------|------|-----------| 
|---------|-------|---------|-----------|------|----------|------|-----------| 
  
  
                            Gtr I 
  W       W         W       S S S S S S   S S S S S S 
|------|----------|-------|-------------|-------------| 
|------|----------|-------|-------------|-2h3-2-3-2-3-| 
|------|----------|-------|-2h4-2-4-2-4-|-------------| 
|------|----------|-------|-------------|-------------| 
|------|----------|-------|-------------|-------------| 
|------|----------|-------|-------------|-------------| 
| 
|                       Gtr III 
| Q  E   +E   E E   Q.      E   E   E     E   S S E 
|------|----------|-------|-------------|-------------| 
|------|----------|-------|-------------|-------------| 
|------|----------|-----x-|-x---x---x---|-x---x-x-x---| 
|-8--8-|-(8)-10-8-|-7-----|-------------|-------------| 
|------|----------|-------|-------------|-------------| 
|------|----------|-------|-------------|-------------| 
                    Q   E 
  
  
  S S S S S S   S S S S S S   S S S S S S 
|-------------|-3h5-3-5-3-5-|-6h8-6-8-6-5--| 
|-5h6-5-6-5-6-|-------------|--------------| 
|-------------|-------------|--------------| 
|-------------|-------------|--------------| 
|-------------|-------------|--------------| 
|-------------|-------------|--------------| 
| 
| E   E   E     E   S S E     E   E   E 
|-------------|-------------|--------------| 
|-------------|-------------|--------------| 
|-x---x---x---|-x---x-x-x---|-x---x---x----| 
|-------------|-------------|--------------| 
|-------------|-------------|--------------| 
|-------------|-------------|--------------| 
  
  
                                 Gtr III 
  S S S S S S   S S S S S S   Q.         E  E  E 
|-3h5-3-5-3---|-------------|----------|-----------| 
|-----------6-|-5h6-5-------|----------|-----------| 
|-------------|-------7-5-3-|-2--x-x-x-|-x---------| 
|-------------|-------------|----------|-----------| 
|-------------|-------------|----------|-----------| 
|-------------|-------------|----------|-----------| 
|                             E  S S E 
| 
|                                          Gtr II 
| E   S S E     E   E   E     E  E   E   E  E.   S 
|-------------|-------------|----------|-----------| 
|-------------|-------------|----------|---10----8-| 
|-x---x-x-x---|-x---x---x---|-x--------|-----------| 
|-------------|-------------|----------|-----------| 
|-------------|-------------|----------|-----------| 
|-------------|-------------|----------|-----------| 
  
  
  W       W         W       W        W 
|------|----------|------|---------|-------------| 
|------|----------|------|---------|-------------| 
|------|----------|------|---------|-------------| 
|------|----------|------|---------|-------------| 
|------|----------|------|---------|-------------| 
|------|----------|------|---------|-------------| 
| 
|                                    |-3-| 
| Q  E   +E  E. S   Q  E   +E  E E   S S S E E 
|------|----------|------|---------|-------------| 
|-8--6-|-(6)-5--3-|-3--2-|-(2)-3-5-|-------------| 
|------|----------|------|---------|-3h5p3-2-3---| 
|------|----------|------|---------|-------------| 
|------|----------|------|---------|-------------| 
|------|----------|------|---------|-------------| 
  
  
                    Gtr I 
                      |-3-| |-3-| 
  Q  E   W          E S S S S S S   E    E E 
|------|--------|-----------------|-5--------| 
|------|--------|-----------5h6h8-|----------| 
|------|--------|-----4h6h7-------|----------| 
|------|--------|---7-------------|----------| 
|------|--------|-----------------|----------| 
|------|--------|-----------------|----------| 
| 
| Q  E   Q.       a E E     E       Q. 
|------|--------|-----------------|-5tr6-----| 
|------|--------|-----------------|----------| 
|-7--6-|--------|-----------------|----------| 
|------|-7tr8---|-6h7-------------|----------| 
|------|--------|-----------------|----------| 
|------|--------|-----------------|----------| 
  
  
      |-3-| |-3-|                  |-3-| |-3-| 
    E S S S S S S   E    E E     E S S S S S S   E    E E 
|---5-------------|----------|-----------------|-5---------| 
|-----8p6p5-------|----------|-----------5h6h8-|-----------| 
|-----------7p6p4-|----------|-----4h6h7-------|-----------| 
|-----------------|-7--------|---7-------------|-----------| 
|-----------------|----------|-----------------|-----------| 
|-----------------|----------|-----------------|-----------| 
| 
| a E E     E       Q.         a E E     E       Q. 
|-4h5-------------|----------|-----------------|-5tr6------| 
|-----------------|----------|-----------------|-----------| 
|-----------------|----------|-----------------|-----------| 
|-----------------|-7tr8-----|-6h7-------------|-----------| 
|-----------------|----------|-----------------|-----------| 
|-----------------|----------|-----------------|-----------| 
  
  
       |-3--| |-3--| 
    E +S  S S S S  S     Q.       +Q.        Q. 
|---5-(5)-4h5-7h9h10-|-<12>---|-(<12>)---|-<12>---| 
|--------------------|--------|----------|--------| 
|--------------------|--------|----------|--------| 
|--------------------|--<7>---|--(<7>)---|--<7>---| 
|--------------------|--------|----------|--------| 
|--------------------|--------|----------|--------| 
| 
| a E  E      E          Q.       +Q.        Q. 
|-4-5----------------|--------|----------|--------| 
|--------------------|--------|----------|--------| 
|--------------------|--------|----------|--------| 
|--------------------|--<7>---|--(<7>)---|--<7>---| 
|--------------------|--<4>---|--(<4>)---|--<4>---| 
|--------------------|--------|----------|--------| 
  
  
    +Q.        Q.       +Q.      W     W     W 
|-(<12>)---|-<12>---|-(<12>)---|-----|-----|-----*| 
|----------|--------|----------|-----|-----|-----*| 
|----------|--------|----------|-----|-----|-----*| 
|--(<7>)---|--<7>---|--(<7>)---|-----|-----|-----*| 
|----------|--------|----------|-----|-----|-----*| 
|----------|--------|----------|-----|-----|-----*| 
| 
|   +Q.        Q.       +Q.      W     W     W 
|----------|--------|----------|-----|-----|-----*| 
|----------|--------|----------|-----|-----|-----*| 
|----------|--------|----------|-----|-----|-----*| 
|--(<7>)---|--<7>---|--(<7>)---|-----|-----|-----*| 
|--(<4>)---|--<4>---|--(<4>)---|-----|-----|-----*| 
|----------|--------|----------|-----|-----|-----*| 

Добавлено: 04.05.2012
Другие материалы по этой песне:
  • Аккорды и текст

Страница создана 04.05.2012
http://primanota.ru/georges-bizet/carmen-aragonaise-chords.htm
Привет, Гость.
Предлагаем пройти революционный курс по гитаре.
Подарок от PrimaNota.Ru, забирай!