PrimaNota.ru - самый крупный в мире бесплатный архив песенных текстов, аккордов, табулатур и нот


George Ogilvie - Too Much Too Soon - таба, видео

Регистрация Запомнить меня
Войти через:  Facebook Google Twitter Vk Yandex Mail.ru

George Ogilvie - Too Much Too Soon - таба, видео

Печатать
Просмотров: 74
Уроки эстрадного вокала в Санкт-Петербурге
-------------------------------------------------------------------------------
                    Too Much, Too Soon - George Ogilvie
-------------------------------------------------------------------------------
This is my first ever attempt at tabbing something, constructive criticism would be greatly 
appreciated.

Tuning: Standard

Capo IV

If you listen how he plays it you will understand the strumming pattern,
it really isn't too difficult.


INTRO

e|-0h2--2-----2-----2-------7----------12------------------------------------|
B|-0h2--2-----0-----0h2-----7----------12------------------------------------|
G|-0h2--2-----0-----0-------0-----------0------------------------------------|
D|-0----0-----0-----2-------7----------12------------------------------------|
A|------------2-----0-------0-----------0------------------------------------|
E|---------------------------------------------------------------------------|


e|-0h2--2-----2-----2-------7-----5------------------------------------------|
B|-0h2--2-----0-----0h2-----7-----5------------------------------------------|
G|-0h2--2-----0-----0-------0-----0------------------------------------------|  repeat x2
D|-0----0-----0-----2-------7-----5------------------------------------------|
A|------------2-------------0-----0------------------------------------------|
E|---------------------------------------------------------------------------|


The rest of the song runs the same as this with some minor alterations

e|-0h2--2-----2-----2-------7-----5------------------------------------------|
B|-0h2--2-----0-----0h2-----7-----5------------------------------------------|
G|-0h2--2-----0-----0-------0-----0------------------------------------------|
D|-0----0-----0-----2-------7-----5------------------------------------------|
A|------------2-------------0-----0------------------------------------------|
E|---------------------------------------------------------------------------|

************************************

| /   slide up
| \   slide down
| h   hammer-on
| p   pull-off
| x   Mute note

************************************
Добавлено: 22.05.2016
Другие материалы по этой песне:
  • Аккорды и текст

Страница создана 22.05.2016
http://primanota.ru/george-ogilvie/too-much-too-soon-chords.htm
Привет, Гость.
Предлагаем пройти революционный курс по гитаре.
Подарок от PrimaNota.Ru, забирай!