PrimaNota.ru - самый крупный в мире бесплатный архив песенных текстов, аккордов, табулатур и нот


George Ogilvie - I Forget Where We Were - таба, видео

Регистрация Запомнить меня
Войти через:  Facebook Google Twitter Vk Yandex Mail.ru

George Ogilvie - I Forget Where We Were - таба, видео

Печатать
Просмотров: 84
Уроки эстрадного вокала в Санкт-Петербурге
-------------------------------------------------------------------------------
                    I Forget Where We Were - George Ogilvie
-------------------------------------------------------------------------------


Tuning: Standard
Capo: 2nd

 The ones that are in paranthesis are played and sometimes not, but they give
a more full sound in my opinion.

INTRO
e|---------------------------------------------------------------------------|
B|---------0---------------0---------------3---------------3-----------------|
G|-----0-----0---0-----0-----0---0-----0-----0---0-----2-----2---2-----------|
D|-------------2---------------0---------------0---------------0-------------|
A|---------------------------------------------------------------------------|
E|-3---------------0---------------3---------------2-------------------------|

e|---------------------------------------------------------------------------|
B|---------3---------------3---------------3---------------------------------|
G|-----2-----2---2-----2-----2---2-----2-----2---2---------------------------|
D|-------------0---------------0---------------0-----------------------------|
A|---------------------------------------------------------------------------|
E|-2---------------2---------------2-----------------------------------------|

FIRST VERSE
e|---------------------------------------------------------------------------|
B|---------0---------------0---------------3---------------3-----------------|
G|-----0-----0---0-----0-----0---0-----0-----0---0-----2-----2---2-----------|
D|-------------2---------------0---------------0---------------0-------------|
A|-------(3)-------------(2)-------------(2)-------------(0)-----------------|
E|-3---------------0---------------3---------------2-------------------------|  x 3

e|---------------------------------------------------------------------------|
B|---------0---------------0---------------3---------------3-----------------|
G|-----0-----0---0-----0-----0---0-----2-----2---2-----2-----2---2-----------|
D|-------------2---------------0---------------0---------------0-------------|
A|-------(3)-------------(2)-------------(0)-------------(0)-----------------|
E|-3---------------0---------------2---------------2-------------------------|

FIRST CHORUS
e|---------------------------------------------------------------------------|
B|---------------------------------------------------------------------------|
G|-0---------------------0-------2-0---------------------0-------2-----------|
D|-2-------------------0-------0---2-------------------0-------0-------------|
A|-3-------------------------------3-----------------------------------------|
E|-3---------------3-------2-------3---------------3-------2-----------------|

e|---------------------------------------------------------------------------|
B|-----------------------------------------0---------------0-----------------|
G|-0---------------------0-------2-----0-----0---0-0h2-2-----2---2-----------|
D|-2-------------------0-------0---------------2---------------0-------------|
A|-3-------------------------------------(3)-------------(3)-----------------|
E|-3---------------3-------2-------3---------------3-------------------------|

e|---------------------------------------------------------------------------|
B|---------0---------------0---------------0---------------0-----------------|
G|-----0-----0---0-0h2-2-----2---2-----0-----0---0-0h2-2---------------------|
D|-------------2---------------0---------------2-----------------------------|
A|-------(3)-------------(3)-------------(3)-------------(3)-----------------|
E|-3---------------3---------------3---------------3-------------------------|

After this plucking part, he starts strumming the chords instead. I'll just 
write down which order he plays the chords as well as how the chords look, and
if I write the same chords twice in a row, it's because he plays it twice as
long. If there's a | betweed two chords (such as G|Dadd4) that means those two
are played on the same beat, so half the usual lenght.

Also, I have no idea what the last chord's name is, so I just put a 
questionmark, feel free to tell me what it is :)


  Cmaj7/G (not sure about the name)  Em7   G    Dadd4   ?
e|------------0-----------------------0----3------3-----0--------------------|
B|------------0-----------------------0----3------3-----0--------------------|
G|------------0-----------------------0----0------2-----2--------------------|
D|------------2-----------------------0----0------0-----0--------------------|
A|------------3-----------------------2----2------0-----3--------------------|
E|------------3-----------------------0----3------2-----3--------------------|


Cmaj7/G  Em7  G  Dadd4

Cmaj7/G  Em7  G  Dadd4

Cmaj7/G  Em7  Dadd4 Dadd4

Cmaj7/G  Em7  G  Dadd4

Cmaj7/G  Em7  Dadd4 Dadd4

Cmaj7/G  G|Dadd4  Cmaj7/G  G|Dadd4

Cmaj7/G  G|Dadd4  Cmaj7/G  ?

Cmaj7/G  ?  Cmaj7/G  ?

Cmaj7/G  ?  Em7  Dadd4

Cmaj7/G  ?  Em7  Dadd4

Cmaj7/G  ?  Em7  Dadd4

Cmaj7/G  ?  Em7  Dadd4

Cmaj7/G  ?  Cmaj7/G  ?

Em7


And that's it!
Добавлено: 19.06.2016
Другие материалы по этой песне:
  • Аккорды и текст

Страница создана 19.06.2016
http://primanota.ru/george-ogilvie/i-forget-where-we-were-chords.htm
Привет, Гость.
Предлагаем пройти революционный курс по гитаре.
Подарок от PrimaNota.Ru, забирай!