PrimaNota.ru - самый крупный в мире бесплатный архив песенных текстов, аккордов, табулатур и нот


George Ogilvie - Count Your Blessings - таба, видео

Регистрация Запомнить меня
Войти через:  Facebook Google Twitter Vk Yandex Mail.ru

George Ogilvie - Count Your Blessings - таба, видео

Печатать
Просмотров: 182
-------------------------------------------------------------------------------
                      Count Your Blessings - George Ogilvie
-------------------------------------------------------------------------------


Pretty sure this is 100% correct, if not I appreciate feedback

Standard tuning, capo on 4th
Tab is relative to the capo, so 8 would be the regular 12th fret



INTRO

e|---------------------------------------------------------------------------|
B|---------------------------------------------------------------------------|
G|------------0-----------0---------------------0--------------0-------------|
D|------0---------------0-------0--------0-------------------0--------0------|
A|----7-----7-----7---9-------9---9---10-----10------10---12-------12---12---|
E|--0-----0-----0---0-------0-------0------0------0-----0--------0-----------|

e|---------------------------------------------------------------------------|
B|---------------------------------------------------------------------------|
G|------------0-----------0-------------------0-----------0------------------|
D|------0---------------0-------0-------0---------------0-------0------------|
A|----7-----7-----7---7-------7---7---7-----7-----7---7-------7---7----------|
E|--8-----8-----8---8-------8-------5-----5-----5---5-------5----------------|

e|---------------------------------------------------------------------------|
B|---------------------------------------------------------------------------|
G|------------0-----------0------------------0-----------0-------------------|
D|------0---------------0------0-------0---------------0-------0-------------|
A|----9-----9-----9---9------9---9---9-----9-----9---9-------9---9-----------|
E|--7-----7-----7---7------7-------7-----7-----7---7-------7-----------------|


PLUCKING PART

e|---------------------------------------------------------------------------|
B|---------------------------------------------------------------------------|
G|------------0-----------0---------------------0--------------0-------------|
D|------0---------------0-------0--------0-------------------0--------0------|
A|----7-----7-----7---9-------9---9---10-----10------10---12-------12---12---|
E|--0-----0-----0---0-------0-------0------0------0-----0--------0-----------|

e|---------------------------------------------------------------------------|
B|---------------------------------------------------------------------------|
G|------------0-----------0-------------------0-----------0------------------|
D|------0---------------0-------0-------0---------------0-------0------------|
A|----7-----7-----7---7-------7---7---7-----7-----7---9-------9---9----------|
E|--8-----8-----8---8-------8-------5-----5-----5---7-------7----------------|

At around 1:46, instead of playing the marked part ^----------------^
he basically just plucks the open G-string and lets it ring, which leads
into the strumming part.


STRUMMING PART

The ^ and v under each chord marks the up-strums and down-strums

e|--0---0-0---0-0-0-0-0-0-0---0-0-0-0---0-0---0-0-0-0-0-0-0---0-0-0----------|
B|--0---0-0---0-0-0-0-0-0-0---0-0-0-0---0-0---0-0-0-0-0-0-0---0-0-0----------|
G|--0---0-0---0-0-0-0-0-0-0---0-0-0-0---0-0---0-0-0-0-0-0-0---0-0-0----------|
D|--0---0-0---0-0-0-0-0-0-0---0-0-0-0---0-0---0-0-0-0-0-0-0---0-0-0----------|
A|--7---7-7---7-7-7-9-9-9-9---9-9-9-10--1010--10101012121212--121212---------|
E|--0---0-0---0-0-0-0-0-0-0---0-0-0-0---0-0---0-0-0-0-0-0-0---0-0-0----------|
    v   v ^   ^ v ^ v ^ v ^   ^ v ^ v   v ^   ^ v ^ v ^ v ^   ^ v ^

e|--0---0-0---0-0-8---8---8---8-8-8-0---0-0---0-0-0-0-0-0-0---0-0-0----------|
B|--0---0-0---0-0-0---0---0---0-0-0-0---0-0---0-0-0-0-0-0-0---0-0-0----------|
G|--0---0-0---0-0-0---0---0---0-0-0-0---0-0---0-0-0-0-0-0-0---0-0-0----------|
D|--0---0-0---0-0-0---0---0---0-0-0-0---0-0---0-0-0-0-0-0-0---0-0-0----------|
A|--7---7-7---7-7-7---7---7---7-7-7-7---7-7---7-7-7-9-9-9-9---9-9-9----------|
E|--8---8-8---8-8-8---8---8---8-8-8-5---5-5---5-5-5-7-7-7-7---7-7-7----------|
    v   v ^   ^ v ^   ^   ^   ^ v ^ v   v ^   ^ v ^ v ^ v ^   ^ v ^

And that's the whole song, enjoy!

Добавлено: 29.08.2015
Другие материалы по этой песне:
  • Аккорды и текст

Страница создана 29.08.2015
http://primanota.ru/george-ogilvie/count-your-blessings-chords.htm
Привет, Гость.
Предлагаем пройти революционный курс по гитаре.
Подарок от PrimaNota.Ru, забирай!