PrimaNota.ru - самый крупный в мире бесплатный архив песенных текстов, аккордов, табулатур и нот


George Lynch - Without Warning - таба, видео

Регистрация Запомнить меня
Войти через:  Facebook Google Twitter Vk Yandex Mail.ru

George Lynch - Without Warning - таба, видео

Печатать
Просмотров: 143
It took me a couple times of seeing him live
to get it, i also got some help from one of
george's friends Jim Warino. Thanx Jim

TUNING:(EADGBE)

H:Hold
h:Hammer-on
p:Pull-off
v:Vibrato
/\:Slide
Gb:Ghost Bend
b:Bend

(extremely fast)
E:-----0--      ---0--     ----0-----|
B:----0-0-      --0-0-     ---0-0----|
G:--------X4    ------X4   ----------|x4
D:--2-----      ------     --0-------|
A:--------      -3----     ----------|
E:--------      ------     ----------|

E:----------0------------------3--------0-------|
B:--------1---1-0h1p0--------3--------3---------|
G:------2-------------2----0--------0-----------|
D:----2-----------------------------------------|
A:--0-------------------------------------------|
E:-----------------------3--------2-------------|

E:---------------------------|
B:---------------------------|
G:---------------------------|x3
D:----2--4--5---2--4-4h5p4---|
A:---2--2--2---2--2----------|
E:--0---------0--------------|

E:----------------0------0-----|
B:-----------------0------0----|
G:-----------------------------|
D:----2--4--5------------------|
A:---2--2--0----0------0-------|
E:--0----------3------2--------|

Take it away with the solo
E:-------------------------------------------------------|
B:---------------------------------8/12v-----10-10v------|
G:--9v--9-11-12--11b12--11h12-------------12-------------|
D:----------------------------10v------------------------|
A:-------------------------------------------------------|
E:-------------------------------------------------------|

E:------------------------------------------------------------------|
B:--12-10----------10-----------------------------------------------|
G:--------12-11-12----12-11-12-11-12-11-11h12p11h12p11h12p11h12p11--|
D:------------------------------------------------------------------|
A:------------------------------------------------------------------|
E:------------------------------------------------------------------|

E:----------------14h15------14h15p14-----17b19v-15b17H-15---22b24H-|
B:--15b17v--17b20-------17v-----------15v---------------------------|
G:------------------------------------------------------------------|
D:------------------------------------------------------------------|
A:------------------------------------------------------------------|
E:------------------------------------------------------------------|

E:--24gb22v--17-19-20-20b22vgb20--20v 15b17Gb15-15H-------------------|
B:--------------------------------------------------17v---------------|
G:--------------------------------------------------------------------|
D:--------------------------------------------------------------------|
A:--------------------------------------------------------------------|
E:--------------------------------------------------------------------|

E:---------|
B:---------|
G:---------|X3
D:----8v---|
A:--7v-----|
E:---------|
Добавлено: 26.07.2012
Другие материалы по этой песне:
  • Аккорды и текст

Страница создана 26.07.2012
http://primanota.ru/george-lynch/without-warning-chords.htm
Привет, Гость.
Предлагаем пройти революционный курс по гитаре.
Подарок от PrimaNota.Ru, забирай!