PrimaNota.ru - самый крупный в мире бесплатный архив песенных текстов, аккордов, табулатур и нот


George Lowell - Willin - аккорды и текст, таба, видео

Регистрация Запомнить меня
Войти через:  Facebook Google Twitter Vk Yandex Mail.ru

George Lowell - Willin - аккорды и текст, таба, видео

Печатать
Просмотров: 129
Авторы: Lowell George
Авторы музыки: Lowell George

Willin
George Lowell
		   -##
From uunet!stanford.edu!ames!riacs!neti.arc.nasa.gov!ben Sun Oct 25 14:40:37 PST 1992
Article: 3199 of alt.guitar.tab
Newsgroups: alt.guitar.tab
Path: nevada.edu!uunet!stanford.edu!ames!riacs!neti.arc.nasa.gov!ben
Message-ID:  1992Oct23.165226.1239@riacs.edu>
Followup-To: alt.guitar
Sender: news@riacs.edu
Reply-To: ben@neti.arc.nasa.gov
Organization: VNW, Inc.
Lines: 124

     I had posted this before, but it never made it into ftp.nevada.edu, so I
don't know how far the posting got.  I see, though, that someone else has a
transcription there, but mine's transcribed from a different source.

Ben

-----------------------------------------------------------------------------


				    Willin'
				(Lowell George)

Notes:
     I transcribed it from the version on Little Feat's _Sailin' Shoes_.
     - Standard tuning.
     - 4/4 time and 2/4 wherever the measure begins with an "!".

     Lowercase letters are notes (c b a), not worth tabbing.

     Tablature for intro and verses:

     |----------7-----------7---7---7--|      |----------5---5-------5---5---5--|
     |----------8-----------8---8---8--|      |----------3---3-------3---3---3--|
  1> |----------0-----------0---0---0--|   2> |----------0---0-------0---0---0--|
     |--5------------------------------|      |--4------------------------------|
     |---------------------------------|      |---------------------------------|
     |---------------------------------|      |---------------------------------|
	1   .   2   .   3   .   4   .		 1   .   2   .   3   .   4   .

     |----------3-----------3----------|      |--------------8---8-----|
     |----------3-----------3----------|      |--------------8---8-----|
  3> |----------0-----------0----------|   4> |--------------9---9-----|
     |--2---------------------------0--|      |------------------------|
     |---------------------------------|      |------------------------|
     |---------------------------------|      |--8---------------------|
	1   .   2   .   3   .   4   .		 1   .   2   .   3...4

     |------3---------------3---3---3--|      |---0---0-----------0-----|
     |------0---------------0---0---0--|      |---1---1-------3---1-----|
  5> |------0---------------0---0---0--|   6> |---0---0-------0---0-----|
     |------0---------------0---0---0--|      |---2---2-------4---2-----|
     |----------------------x---x---x--|      |---3---3-------5---3-----|
     |--3------------------------------|      |-------------------------|
	1   .   2   .   3   .   4   .		  1   .   2   .   3...4

     Chords shapes used in most of the above tab:

	  G(no 5th) 1>        D/G 2>	      Em7 3>	       C(1) 4>
		o		 o		  o
	  |-+-+-+-+-|      |-+-+-+-+-|      ===========      |-+-+-+-+-|
	  | | @ | | | V    | | | | @ | III  | | | | | |	     @ | | | @ @ VIII
	  |-+-+-+-+-|      |-+-+-+-+-|      |-+-+-+-+-|      |-+-+-+-+-|
	  | | | | | |      | | @ | | |      | @ @ | | |      | | | @ | |
	  |-+-+-+-+-|      |-+-+-+-+-|      |-+-+-+-+-|      |-+-+-+-+-|
	  | | | | | @      | | | | | @      | | | | @ @      | @ @ | | |
	  |-+-+-+-+-|      |-+-+-+-+-|      |-+-+-+-+-|      |-+-+-+-+-|
	  | | | | @ |      | | | | | |      | | | | | |      | | | | | |

	      G 5>	     C(2) 6>	   Dmaj9sus4 6>		  D
	      o o o		 o   o		  o		 o
	  ===========      ===========	    |-+-+-+-+-|	     ===========
	  | | | | | |	   | | | | @ |	    | | | | @ | III  | | | | | |
	  |-+-+-+-+-|	   |-+-+-+-+-|	    |-+-+-+-+-|	     |-+-+-+-+-|
	  | x | | | |	   | | @ | | |	    | | @ | | |	     | | | @ | @
	  |-+-+-+-+-|	   |-+-+-+-+-|	    |-+-+-+-+-|	     |-+-+-+-+-|
	  @ | | | | @	   | @ | | | |	    | @ | | | |	     | | | | @ |
	  |-+-+-+-+-|	   |-+-+-+-+-|	    |-+-+-+-+-|	     |-+-+-+-+-|
	  | | | | | |	   | | | | | |	    | | | | | |	     | | | | | |

          NOTE: I'm not sure if all the chord names are correct; don't hesitate
		to correct them!


Intro:

	| 1>	| 2>
	| 3>	| 4>
	| 5>	| 6>	|G(1)	|

			 | 1>		     | 2>
		I've been warped by the rain, driven by the snow;
		       | 3>		| 4>
		    I'm drunk and dirty, don't you know,
			     | 5> | 6> |G(1)	|
		    and I'm still       willin'.
			 | 1>		  | 2>
		And I was out on the road, late at night,
			  | 3>		       | 4>
		    I seen my pretty Alice in every headlight,
			  | 5>	 | 6>	|G
		    Alice, Dallas Alice.

				  |C(2)		   |D
		And I've been from Tuscon to Tucumcari,
		     |		       |G(1)
		    Tahachapi to Tonapah.
		      |			       !	 |C    |
		Driven every kind of rig that's ever been made,
		   |			      !		   |D
		    driven the back roads so I wouldn't get weighed.
	       |Tacet		  |c	 b	 a  |G(1)
		And if you give me weed, whites, and wine,
		   |		     |D
		    and you show me a sign
		   |		   |G(1) | 6>
		    I'll be willin' to be movin'.

	(Intro) x2

		Well, I've been kicked by the wind, robbed by the sleet,
		    had my head stove in, but I'm still on my feet
		    and I'm still willin'.
		I smuggled some smokes and folks from Mexico;
		    baked by the sun every time I go to Mexico;
		    and I'm still...

		And I've been from Tuscon to Tucumcari,
		    Tahachapi to Tonapah.
		I've driven every kind of rig that's ever been made;
		    driven the back roads so I wouldn't get weighed.
		And if you give me weed, whites, and wine,
		    and you show me a sign
		    and I'll be willin' to be movin'.     
Добавлено: 14.07.2013
Другие материалы по этой песне:
  • Аккорды и текст

Страница создана 12.03.2012
http://primanota.ru/george-lowell/willin-chords.htm
Привет, Гость.
Предлагаем пройти революционный курс по гитаре.
Подарок от PrimaNota.Ru, забирай!