PrimaNota.ru - самый крупный в мире бесплатный архив песенных текстов, аккордов, табулатур и нот


George Harrison - This Guitar Cant Keep From Crying - Platinum Weird Version - аккорды и текст, видео

Регистрация Запомнить меня
Войти через:  Facebook Google Twitter Vk Yandex Mail.ru

George Harrison - This Guitar Cant Keep From Crying - Platinum Weird Version - аккорды и текст, видео

Печатать
Просмотров: 174
Уроки эстрадного вокала в Санкт-Петербурге
This Guitar Cant Keep From Crying - Platinum Weird Version
George Harrison
---------------------------------------------------------------------------
     This Guitar (Can't Keep From Crying) - Platinum Weird Version 
                               George Harrison
---------------------------------------------------------------------------
Tabbed by: maguri
Tuning: Standard

George Harrison
This Guitar (Can't Keep From Crying)
             Platinum Weird Version (1992/2002)
(Harrison)

From: "Extra Texture" (2014 remaster)

https://www.youtube.com/watch?v=ODgxXWXvSEk

---------------------------------------------------------------------------

capo: 5th fret
play: Am
key: Dm

---------------------------------------------------------------------------

INTRO / VERSE / OUTRO

  Am       Am/G F                D/F#               F/D
  1 + 2 + 3 + 4 +  1 + 2 + 3 + 4 +  1 + 2 + 3 + 4 +  1 + 2 + 3 + 4 +
e|0-------------1-|--------------2-|----------------|5---------------|
B|1-------------1-|--------------3-|----------------|6---------------|
G|2-------------2-|--------------2-|----------------|5---------------|
D|2-------------3-|--------------0-|----------------|0---------------|
A|0-------0-----3-|----------------|--------------0-|----------------|
E|----------3---1-|----------0-1-2-|----------1-2---|----------------|
  C                E7               Asus4 Am           Em  E7
  1 + 2 + 3 + 4 +  1 + 2 + 3 + 4 +  1 + 2 + 3 + 4 +  1 + 2 + 3 + 4 +
e|3---------------|0---------------|0-----0---------|--3-3-0-0-------|
B|1---------------|0---------------|3-----1---------|--0-0-0-0-------|
G|0---------------|1---------------|2-----2---------|--0---1-1-------|
D|2---------------|0---------------|2-----2---------|--2-----0-------|
A|3---------------|2---------------|0-----0---------|2-------2-------|
E|----------------|0---------------|----------------|0-------0-------|

---------------------------------------------------------------------------

CHORDS
        E-A-D-G-B-e
Am/G    3-x-2-2-1-0
D7/F#   2-x-0-2-1-2
F/D     x-x-0-5-6-5
C       x-3-2-0-1-3
Em      0-2-2-0-0-3
E7      0-2-0-1-0-0

---------------------------------------------------------------------------


INTRO
| Am | F | D7/F# | F/D | C | E7 | Asus4 Am | Em E7 | 
| Am | F | D7/F# | F/D | C | E7 | Asus4 Am | Em E7 | 


VERSE
Am            Am/G F
 Found myself out  on a limb
D7/F#                      F/D
 But I'm happier than I've ever been
    C                 E         Am      | Em E7 |
But this guitar can't keep from crying


VERSE
Am              Am/G F
 Learned to get up   when I fall
D7/F#           F/D
 Can even climb Rolling Stone walls
C                 E         Am
This guitar can't keep from crying


MIDDLE 8
C                    G
This here guitar can feel quite sad
G7    E                   Asus4          Am
  Can be high strung, sometimes gets mad
Am/G      F             C
    Can't understand or deal with hate
   E                   | E | % |
Responds much better to love


VERSE
Am             Am/G F
 Though by now you  knew the score
D7/F#                      F/D
 You missed the point just like before
C                 E         Am       | Em E7 |
This guitar can't keep from crying


SOLO
| Am | F | D7/F# | F/D | C | E7 | Asus4 Am | Em E7 | 
| Am | F | D7/F# | F/D | C | E7 | Asus4 Am | Am | 


MIDDLE 8
C                    G
This here guitar can feel quite sad
G7    E                   Asus4          Am
  Can be high strung, sometimes gets mad
Am/G      F             C
    Can't understand or deal with hate
   E                   | E | % |
Responds much better to love


VERSE
Am                Am/G  F
 While you attack,   create offence
D7/F#                     F/D
 I'll put it down to your ignorance
    C              E                 Am 
But this guitar ca-an't keep from crying
C                 E          Am     | Em E7 |
This guitar can't keep from crying


OUTRO SOLO
| Am | F | D7/F# | F/D | C | E7 | Asus4 Am | Em E7 | 

(repeat and fade)

Добавлено: 24.05.2015
Другие материалы по этой песне:
  • Аккорды и текст

Страница создана 24.05.2015
http://primanota.ru/george-harrison/this-guitar-cant-keep-from-crying-platinum-weird-version-chords.htm
Привет, Гость.
Предлагаем пройти революционный курс по гитаре.
Подарок от PrimaNota.Ru, забирай!