PrimaNota.ru - самый крупный в мире бесплатный архив песенных текстов, аккордов, табулатур и нот


George Harrison - Cackamamie Business - бас-таба

Регистрация Запомнить меня
Войти через:  Facebook Google Twitter Vk Yandex Mail.ru

George Harrison - Cackamamie Business - бас-таба

Печатать
Просмотров: 180
Уроки эстрадного вокала в Санкт-Петербурге
COCKAMAMIE BUSINESS

George Harrison
From The Best Of Dark Horse 1976-1989

INTRO

  00:01

G|---------------------------------|---------------------------------|
D|---------------------------------|---------------------------------|
A|---------------------------------|-0-------2-------3-------0-------|
E|-0-------2-------3-------0-------|---------------------------------|

G|---------------------------------|---------------------------------|
D|---------------------------------|---------------------------------|
A|-3-------3-------2-------2-------|---------------------------------|
E|---------------------------------|-0---------------0-------0-------|

G|---------------------------------|---------------------------------|
D|---------------------------------|---------------------------------|
A|---------------------------------|-0-------2-------3-------0-------|
E|-0-------2-------3-------0-------|---------------------------------|

G|---------------------------------|---------------------------------|
D|---------------------------------|---------------------------------|
A|-3-------3-------2-------2-------|---------------------------------|
E|---------------------------------|-0-----------0-0-0---------------|

VERSE

  00:19

G|---------------------------------|---------------------------------|
D|---------------------------------|---------------------------------|
A|-7---7-----------7---7-----------|---------------------------------|
E|---------------------------------|-7---7-----------7---7-----------|

G|---------------------------------|---------------------------------|
D|---------------------------------|---------------------------------|
A|---------------------------------|---------------------------------|
E|-0---0-----------0---0-----------|-0---0-----------0---0-----------|

G|---------------------------------|---------------------------------|
D|---------------------------------|---------------------------------|
A|---------------------------------|-5---5-----------5---5-----------|
E|-5---5-----------5---5-----------|---------------------------------|

G|---------------------------------|---------------------------------|
D|---------------------------------|---------------------------------|
A|---------------------------------|-----------------5---------------|
E|-7---7-----------7---7-----------|-----7---7---7-----------7-------|

G|---------------------------------|---------------------------------|
D|---------------------------------|---------------------------------|
A|---------------------------------|-0-------0-------0-------0-------|
E|-0-------0-------0-------0-------|---------------------------------|

G|---------------------------------|---------------------------------|
D|---------------------------------|---------------------------------|
A|-3-------3-------2-------2-------|---------------------------------|
E|---------------------------------|-0-------0-------0-------7\------|

INTERLUDE

  00:45

G|---------------------------------|---------------------------------|
D|---------------------------------|---------------------------------|
A|---------------------------------|-0-------2-------3-------0-------|
E|-0-------2-------3-------0-------|---------------------------------|

G|---------------------------------|---------------------------------|
D|---------------------------------|---------------------------------|
A|-3-------3-------2-------2-------|---------------------------------|
E|---------------------------------|-0-----------0-0-0---------------|

VERSE

  00:54

G|---------------------------------|---------------------------------|
D|---------------------------------|---------------------------------|
A|-7---7-----------7---7-----------|---------------------------------|
E|---------------------------------|-7---7-----------7---7-----------|

G|---------------------------------|---------------------------------|
D|---------------------------------|---------------------------------|
A|---------------------------------|---------------------------------|
E|-0---0-----------0---0-----------|-0---0-----------0---0-----------|

G|---------------------------------|---------------------------------|
D|---------------------------------|---------------------------------|
A|---------------------------------|-5---5-----------5---5-----------|
E|-5---5-----------5---5-----------|---------------------------------|

G|---------------------------------|---------------------------------|
D|---------------------------------|---------------------------------|
A|---------------------------------|-----------------5---------------|
E|-7---7-----------7---7-----------|-----7---7---7-----------7-------|

G|---------------------------------|---------------------------------|
D|---------------------------------|---------------------------------|
A|---------------------------------|-0-------0-------0-------0-------|
E|-0-------0-------0-------0-------|---------------------------------|

G|---------------------------------|---------------------------------|
D|---------------------------------|---------------------------------|
A|-3-------3-------2-------2-------|---------------------------------|
E|---------------------------------|-0-------0-------0---------------|

INTERLUDE

  01:21

G|---------------------------------|---------------------------------|
D|---------------------------------|---------------------------------|
A|---------------------------------|-0-------2-------3-------0-------|
E|-0-------2-------3-------0-------|---------------------------------|

G|---------------------------------|---------------------------------|
D|---------------------------------|-------------------------9\------|
A|-3---------------2---------------|---------------------------------|
E|---------------------------------|-0---------------0---------------|

G|---------------------------------|---------------------------------|
D|---------------------------------|---------------------------------|
A|-7---7---5---5-------------------|-0---0---------------------------|
E|-----------------7---7---5---5---|---------3---3---2---2---0---0---|

G|---------------------------------|---------------------------------|
D|---------------------------------|---------------------------------|
A|-3-------3-------2-------2-------|---------------------------------|
E|---------------------------------|-0-----------0-0-0---------------|

VERSE

  01:38

G|---------------------------------|---------------------------------|
D|---------------------------------|---------------------------------|
A|---------------------------------|---------------------------------|
E|-0---0-----------0---0-----------|-7---7-----------7---7-----------|

G|---------------------------------|---------------------------------|
D|---------------------------------|---------------------------------|
A|---------------------------------|---------------------------------|
E|-0---0-----------0---0-----------|-0---0-----------0---0-----------|

G|---------------------------------|---------------------------------|
D|---------------------------------|---------------------------------|
A|---------------------------------|-5---5-----------5---5-----------|
E|-5---5-----------5---5-----------|---------------------------------|

G|---------------------------------|---------------------------------|
D|---------------------------------|---------------------------------|
A|---------------------------------|-----------------5---------------|
E|-7---7-----------7---7-----------|-----7---7---7-----------7-------|

G|---------------------------------|---------------------------------|
D|---------------------------------|---------------------------------|
A|---------------------------------|-0-------0-------0-------0-------|
E|-0-------0-------0-------0-------|---------------------------------|

G|---------------------------------|---------------------------------|
D|---------------------------------|-2---2---2---2---2---------------|
A|-3-------3-------2-------2-------|---------------------------------|
E|---------------------------------|---------------------------------|

INTERLUDE

  02:05

G|---------------------------------|---------------------------------|
D|---------------------------------|---------------------------------|
A|---------------------------------|-0-------2-------3-------0-------|
E|-0-------2-------3-------0-------|---------------------------------|

G|---------------------------------|---------------------------------|
D|---------------------------------|---------------------------------|
A|-3-------3-------2-------2-------|---------------------------------|
E|---------------------------------|-0---------------0---0---0-------|

G|---------------------------------|---------------------------------|
D|---------------------------------|---------------------------------|
A|-7---7---5---5-------------------|-0---0---------------------------|
E|-----------------7---7---5---5---|---------3---3---2---2---0---0---|

G|---------------------------------|---------------------------------|
D|---------------------------------|---------------------------------|
A|-3---------------2---------------|---------------------------------|
E|---------------------------------|-0---------------0---------------|

VERSE

  02:23

G|---------------------------------|---------------------------------|
D|---------------------------------|---------------------------------|
A|---------------------------------|---------------------------------|
E|-0---0-----------0---0-----------|-7---7-----------7---7-----------|

G|---------------------------------|---------------------------------|
D|---------------------------------|---------------------------------|
A|---------------------------------|---------------------------------|
E|-0---0-----------0---0-----------|-0---0-----------0---0-----------|

G|---------------------------------|---------------------------------|
D|---------------------------------|---------------------------------|
A|---------------------------------|-5---5-----------5---5-----------|
E|-5---5-----------5---5-----------|---------------------------------|

G|---------------------------------|---------------------------------|
D|---------------------------------|---------------------------------|
A|---------------------------------|-----------------5---------------|
E|-7---7-----------7---7-----------|-----7---7---7-----------7-------|

G|---------------------------------|---------------------------------|
D|---------------------------------|---------------------------------|
A|---------------------------------|-0-------0-------0-------0-------|
E|-0-------0-------0-------0-------|---------------------------------|

G|---------------------------------|---------------------------------|
D|---------------------------------|---------------------------------|
A|-3-------3-------2-------2-------|---------------------------------|
E|---------------------------------|-0-------0-------0---------------|

INTERLUDE

  02:49

G|---------------------------------|---------------------------------|
D|---------------------------------|---------------------------------|
A|---------------------------------|-0-------2-------3-------0-------|
E|-0-------2-------3-------0-------|---------------------------------|

G|---------------------------------|---------------------------------|
D|---------------------------------|-------------------------9\------|
A|-3-------3-------2-------2-------|---------------------------------|
E|---------------------------------|-0---------------0---------------|

G|---------------------------------|---------------------------------|
D|---------------------------------|---------------------------------|
A|-7---7---5---5-------------------|-0---0---------------------------|
E|-----------------7---7---5---5---|---------3---3---2---2---0---0---|

G|---------------------------------|---------------------------------|
D|---------------------------------|---------------------------------|
A|-3---------------2---------------|---------------------------------|
E|---------------------------------|-0---------------0---0-0-0-------|

VERSE

  03:07

G|---------------------------------|---------------------------------|
D|---------------------------------|---------------------------------|
A|-7---7-----------7---7-----------|---------------------------------|
E|---------------------------------|-7---7-----------7---7-----------|

G|---------------------------------|---------------------------------|
D|---------------------------------|---------------------------------|
A|---------------------------------|---------------------------------|
E|-0---0-----------0---0-----------|-0---0-----------0---0-----------|

G|---------------------------------|---------------------------------|
D|---------------------------------|---------------------------------|
A|---------------------------------|-5---5-----------5---5-----------|
E|-5---5-----------5---5-----------|---------------------------------|

G|---------------------------------|---------------------------------|
D|---------------------------------|---------------------------------|
A|---------------------------------|-----------------5---------------|
E|-7---7-----------7---7-----------|-----7---7---7-----------7-------|

G|---------------------------------|---------------------------------|
D|---------------------------------|---------------------------------|
A|---------------------------------|-0-------0-------0-------0-------|
E|-0-------0-------0-------0-------|---------------------------------|

G|---------------------------------|---------------------------------|
D|---------------------------------|---------------------------------|
A|-3-------3-------2-------2-------|---------------------------------|
E|---------------------------------|-0-------0-------0-------7\------|

INTERLUDE

  03:34

G|---------------------------------|---------------------------------|
D|---------------------------------|---------------------------------|
A|---------------------------------|-0-------2-------3-------0-------|
E|-0-------2-------3-------0-------|---------------------------------|

G|---------------------------------|---------------------------------|
D|---------------------------------|-------------------------9\------|
A|-3-------3-------2-------2-------|---------------------------------|
E|---------------------------------|-0-------0-------0---------------|

G|---------------------------------|---------------------------------|
D|---------------------------------|---------------------------------|
A|-7---7---5---5-------------------|-0---0---------------------------|
E|-----------------7---7---5---5---|---------3---3---2---2---0---0---|

G|---------------------------------|---------------------------------|
D|---------------------------------|---------------------------------|
A|-3-------3-------2-------2-------|---------------------------------|
E|---------------------------------|-0-------0-------0---------------|

VERSE

  03:51

G|---------------------------------|---------------------------------|
D|---------------------------------|---------------------------------|
A|---------------------------------|---------------------------------|
E|-0---0-----------0---0-----------|-7---7-----------7---7-----------|

G|---------------------------------|---------------------------------|
D|---------------------------------|---------------------------------|
A|---------------------------------|---------------------------------|
E|-0---0-----------0---0-----------|-0---0-----------0---0-----------|

G|---------------------------------|---------------------------------|
D|---------------------------------|---------------------------------|
A|---------------------------------|-5---5-----------5---5-----------|
E|-5---5-----------5---5-----------|---------------------------------|

G|---------------------------------|---------------------------------|
D|---------------------------------|---------------------------------|
A|---------------------------------|-----------------5---------------|
E|-7---7-----------7---7-----------|-----7---7---7-----------7-------|

G|---------------------------------|---------------------------------|
D|---------------------------------|---------------------------------|
A|---------------------------------|-0-------0-------0-------0-------|
E|-0-------0-------0-------0-------|---------------------------------|

G|---------------------------------|---------------------------------|
D|---------------------------------|---------------------------------|
A|-3-------3-------2-------2-------|---------------------------------|
E|---------------------------------|-0-------0-------0-------7\------|

INTERLUDE

  04:18

G|---------------------------------|---------------------------------|
D|---------------------------------|---------------------------------|
A|---------------------------------|-0-------2-------3-------0-------|
E|-0-------2-------3-------0-------|---------------------------------|

G|---------------------------------|---------------------------------|
D|---------------------------------|---------------------------------|
A|-3-------3-------2-------2-------|---------------------------------|
E|---------------------------------|-0-------0-------0-------0-------|

G|---------------------------------|---------------------------------|
D|---------------------------------|---------------------------------|
A|-7---7---5---5-------------------|-0---0---------------------------|
E|-----------------7---7---5---5---|---------3---3---2---2---0---0---|

G|---------------------------------|---------------------------------|
D|---------------------------------|---------------------------------|
A|-3-------3-------2-------2-------|---------------------------------|
E|---------------------------------|-0-------0-------0---------------|

OUTRO

  04:36

G|---------------------------------|---------------------------------|
D|---------------------------------|---------------------------------|
A|---------------------------------|-0-------2-------3-------0-------|
E|-0-------2-------3-------0-------|---------------------------------|

G|---------------------------------|---------------------------------|
D|---------------------------------|---------------------------------|
A|-3-------3-------2-------2-------|---------------------------------|
E|---------------------------------|-0-------0-------0-------7\------|

G|---------------------------------|---------------------------------|
D|---------------------------------|---------------------------------|
A|-7---7---5---5-------------------|-0---0---------------------------|
E|-----------------7---7---5---5---|---------3---3---2---2---0---0---|

G|---------------------------------|---------------------------------|
D|---------------------------------|---------------------------------|
A|-3-------3-------2-------2-------|---------------------------------|
E|---------------------------------|-0-------0-------0-------0-------|

  04:53

G|---------------------------------|---------------------------------|
D|---------------------------------|---------------------------------|
A|---------------------------------|-0-------2-------3-------0-------|
E|-0-------2-------3-------0-------|---------------------------------|

G|---------------------------------|---------------------------------|
D|---------------------------------|-------------------------9\------|
A|-3-------3-------2-------2-------|---------------------------------|
E|---------------------------------|-0-------0-------0---------------|

G|---------------------------------|---------------------------------|
D|---------------------------------|---------------------------------|
A|-7---7---5---5-------------------|-0---0---------------------------|
E|-----------------7---7---5---5---|---------3---3---2---2---0---0---|

G|---------------------------------|---------------------------------|
D|---------------------------------|---------------------------------|
A|-3-------3-------2-------2-------|-7-------5-----------------------|
E|---------------------------------|-----------7-5-3-0---------------|
Добавлено: 09.06.2012
Другие материалы по этой песне:
  • Аккорды и текст

Страница создана 09.06.2012
http://primanota.ru/george-harrison/cackamamie-business-chords.htm
Привет, Гость.
Предлагаем пройти революционный курс по гитаре.
Подарок от PrimaNota.Ru, забирай!