PrimaNota.ru - самый крупный в мире бесплатный архив песенных текстов, аккордов, табулатур и нот


Гершвин Джордж - A Foggy Day (In London Town) - бас-таба, видео

Регистрация Запомнить меня
Войти через:  Facebook Google Twitter Vk Yandex Mail.ru

Гершвин Джордж - A Foggy Day (In London Town) - бас-таба, видео

Печатать
Просмотров: 347
Уроки эстрадного вокала в Санкт-Петербурге
Авторы музыки: George Gershwin
Авторы текста: Ira Gershwin
gershwin_a_foggy_day_in_london_town

Basstab by Jan Bjorklund, Finland
 jani_bjorklund@yahoo.se>
You are welcome to request for basstabs!
Fingering and positions as suggested by TablEdit,
please use common sense!

TablEdited by Jan Bjorklund
Tuning : E A D G 	Time Signature: 4/4

 |               |               |               |    
           
|----------------------------------------------------------------|
|3-------------------------------3-------------------------------|
|----------------------------------------------------------------|
|----------------------------------------------------------------|

 |               |               |               |    
           
|----------------------------------------------------------------|
|--------------------------------0-------------------------------|
|0---------------------------------------------------------------|
|----------------------------------------------------------------|

 |               |               |               |    
           
|0-------------------------------0-------------------------------|
|----------------------------------------------------------------|
|----------------------------------------------------------------|
|----------------------------------------------------------------|

 |               |               |               |    
           
|----------------------------------------------------------------|
|----------------------------------------------------------------|
|3-------------------------------3-------------------------------|
|----------------------------------------------------------------|

 |               |               |               |    
           
|--------------------------------5-------------------------------|
|3---------------------------------------------------------------|
|----------------------------------------------------------------|
|----------------------------------------------------------------|

 |               |               |               |    
           
|----------------------------------------------------------------|
|0-------------------------0-----3-------------------------------|
|----------------------------------------------------------------|
|----------------------------------------------------------------|

 |               |               |               |    
           
|--------------------------------7-------------------------------|
|5---------------------------------------------------------------|
|----------------------------------------------------------------|
|----------------------------------------------------------------|

 |               |               |               |    
           
|0---------------------------------------------------------------|
|----------------------------------------------------------------|
|--------------------------------3-------------------------------|
|----------------------------------------------------------------|

 |               |               |               |    
           
|----------------------------------------------------------------|
|3-------------------------------3-------------------------------|
|----------------------------------------------------------------|
|----------------------------------------------------------------|

 |               |               |               |    
           
|----------------------------------------------------------------|
|--------------------------------3-------------------------------|
|3---------------------------------------------------------------|
|----------------------------------------------------------------|

 |               |               |               |    
           
|----------------------------------------------------------------|
|--------------------------------3-------------------------------|
|1---------------------------------------------------------------|
|----------------------------------------------------------------|

 |               |               |               |    
           
|--------------------------------3-------------------------------|
|1---------------------------------------------------------------|
|----------------------------------------------------------------|
|----------------------------------------------------------------|

 |               |               |               |    
           
|--------------------------------5-------------------------------|
|3---------------------------------------------------------------|
|----------------------------------------------------------------|
|----------------------------------------------------------------|

 |               |               |               |    
           
|----------------------------------------------------------------|
|--------------------------------0-------------------------------|
|0---------------------------------------------------------------|
|----------------------------------------------------------------|

 |               |               |               |    
           
|0-------------------------------0-------------------------------|
|----------------------------------------------------------------|
|----------------------------------------------------------------|
|----------------------------------------------------------------|

 |               |               |               |    
           
|0---------------------------------------------------------------|
|----------------------------------------------------------------|
|--------------------------------3-------------------------------|
|----------------------------------------------------------------|

 |               |               |               |    
           
|--------------------------------5-------------------------------|
|3---------------------------------------------------------------|
|----------------------------------------------------------------|
|----------------------------------------------------------------|

 |               |               |               |    
           
|1---------------------------------------------------------------|
|----------------------------------------------------------------|
|--------------------------------4-------------------------------|
|----------------------------------------------------------------|

 |               |               |               |    
           
|0-------------------------------0-------------------------------|
|----------------------------------------------------------------|
|----------------------------------------------------------------|
|----------------------------------------------------------------|

 |               |               |               |    
           
|--------------------------------0-------------------------------|
|----------------------------------------------------------------|
|3---------------------------------------------------------------|
|----------------------------------------------------------------|

 |               |               |               |    
           
|----------------------------------------------------------------|
|3-------------------------------3-------------------------------|
|----------------------------------------------------------------|
|----------------------------------------------------------------|

 |               |               |               |    
           
|--------------------------------1-------------------------------|
|0---------------------------------------------------------------|
|----------------------------------------------------------------|
|----------------------------------------------------------------|

 |               |               |               |    
           
|0---------------------------------------------------------------|
|--------------------------------0-------------------------------|
|----------------------------------------------------------------|
|----------------------------------------------------------------|

 |               |               |               |    
           
|0---------------------------------------------------------------|
|----------------------------------------------------------------|
|--------------------------------3-------------------------------|
|----------------------------------------------------------------|

 |               |               |               |    
           
|------------------------------------------------0---------------|
|----------------0---------------1-------------------------------|
|3---------------------------------------------------------------|
|----------------------------------------------------------------|

 |               |               |               |    
           
|----------------------------------------------------------------|
|3---------------1---------------0-------------------------------|
|----------0-------------------------------------3---------------|
|----------------------------------------------------------------|

 |               |               |               |    
           
|----------------3-----------------------------------------------|
|--------------------------------3-------------------------------|
|1-----------------------------------------------1---------------|
|----------------------------------------------------------------|

 |               |               |               |    
           
|--------------------------------3---------------3---------------|
|1---------------1-----------------------------------------------|
|----------------------------------------------------------------|
|----------------------------------------------------------------|

 |               |               |               |    
           
|----------------5-----------------------------------------------|
|3-----------3-------------------5-------------------------------|
|----------------------------------------------------------------|
|------------------------------------------------6---------------|

 |               |               |               |    
           
|----------------------------------------------------------------|
|------------------------------------------------3---------------|
|0---------------0---------------1-------------------------------|
|----------------------------------------------------------------|

 |               |               |               |    
           
|----------------------------------------------------------------|
|----------------2---------------0---------------4---------------|
|0-----------0---------------------------------------------------|
|----------------------------------------------------------------|

 |               |               |               |    
           
|----------------7---------------5-------------------------------|
|5-----------------------------------------------5---------------|
|----------5---------------5-------------------------------------|
|----------------------------------------------------------------|

 |               |               |               |    
           
|--------------------------------5-------------------------------|
|3---------------------------------------------------------------|
|----------------------------------------------------------------|
|----------------------------------------------------------------|

 |               |               |               |    
           
|0---------------------------------------------------------------|
|----------------------------------------------------------------|
|--------------------------------3-------------------------------|
|----------------------------------------------------------------|

 |               |               |               |    
           
|--------------------------------2---------------5---------------|
|3---------------5-----------------------------------------------|
|----------------------------------------------------------------|
|----------------------------------------------------------------|

 |               |               |               |    
           
|----------------2-------------------------------2---------------|
|----------------------1---------0-------------------------------|
|0-----------------------0-----------------0---------------0-----|
|----------------------------------------------------------------|

 |               |               |               |    
           
|------------------------------------------------7---------------|
|5---------------7---------------8-------------------------------|
|----------------------------------------------------------------|
|----------------------------------------------------------------|

 |               |               |               |    
           
|----------------------------------------------------------------|
|----------------0---------------1---------------2---------------|
|3---------------------------------------------------------------|
|----------3-------------------------------3---------------------|

 |               |               |               |    
           
|----------------5---------------2-------------------------------|
|3-----------------------------------------------3---------------|
|----------------------------------------------------------------|
|----------------------------------------------------------------|

 |               |               |               |    
           
|----------------------------------------------------------------|
|0---------------1---------------3---------------3---------------|
|----------------------------------------------------------------|
|----------------------------------------------------------------|

 |               |               |               |    
           
|--------------------------------4---------------7---------------|
|5---------------7-----------------------------------------------|
|----------------------------------------------------------------|
|----------------------------------------------------------------|

 |               |               |               |    
           
|------------------------------------------------5---------------|
|5-----------------------------------------------------5---------|
|----------------2---------------3-----------------------3-------|
|----------------------------------------------------------------|

 |               |               |               |    
           
|--------------------------------2---------------5---------------|
|3---------------5-----------------------------------------------|
|----------------------------------------------------------------|
|----------------------------------------------------------------|

 |               |               |               |    
           
|----------------------------------------------------------------|
|----------------4---------------3-------------------------------|
|3-----------------------------------------------2---------------|
|------------------------------------------1---------------------|

 |               |               |               |    
           
|----------------3-----------------------------------------------|
|--------------------------------3---------------0---------------|
|1---------------------------------------------------------------|
|----------------------------------------------------------------|

 |               |               |               |    
           
|--------------------------------0---------------3---------------|
|1---------------3-----------------------------------------------|
|----------------------------------------------------------------|
|----------------------------------------------------------------|

 |               |               |               |    
           
|--------------------------------2---------------5---------------|
|3---------------5-----------------------------------------------|
|----------------------------------------------------------------|
|----------------------------------------------------------------|

 |               |               |               |    
           
|----------------------------------------------------------------|
|--------------------------------0---------0-----0---------------|
|0---------------3-----------------------------------------------|
|----------------------------------------------------------------|

 |               |               |               |    
           
|--------------------------------12------------------------------|
|----------------12------------------------------12--------------|
|10--------------------------------------------------------11----|
|----------------------------------------------------------------|

 |               |               |               |    
           
|0---------------0-------------------------------0---------------|
|----------------------------------------------------------------|
|--------------------------------3-------------------------------|
|----------------------------------------------------------------|

 |               |               |               |    
           
|--------------------------------10------------------------------|
|----------------10------------------------------10--------7-----|
|8---------------------------------------------------------------|
|----------------------------------------------------------------|

 |               |               |               |    
           
|----------------8-----------------------------------------------|
|6-----------------------------------------------6---------------|
|----------------------------------------------------------------|
|--------------------------------9-----------9-------------------|

 |               |               |               |    
           
|----------------7-----------------------------------------------|
|5-------------------------------8---------------5---------------|
|----------------------------------------------------------------|
|----------------------------------------------------------------|

 |               |               |               |    
           
|--------------------------------5-------------------------------|
|----------------5-------------------------------5---------4-----|
|3---------------------------------------------------------------|
|----------------------------------------------------------------|

 |               |               |               |    
           
|--------------------------------2---------------5---------------|
|3---------------5-----------------------------------------------|
|----------3-------------------------------3---------------3-----|
|----------------------------------------------------------------|

 |               |               |               |    
           
|------------------------------------------------1---------------|
|0---------------1---------------3-------------------------------|
|----------------------------------------------------------------|
|----------------------------------------------------------------|

 |               |               |               |    
           
|----------------12----------------------------------------------|
|--------------------------------12------------------------------|
|10----------------------------------------------10--------------|
|----------------------------------------------------------------|

 |               |               |               |    
           
|0---------------0-------------------------------0---------------|
|----------------------------------------------------------------|
|--------------------------------3-------------------------------|
|----------3-------------------------------3---------------3-----|

 |               |               |               |    
           
|------------------------------------------------0---------------|
|----------------0---------------1-------------------------------|
|3---------------------------------------------------------------|
|----------3-------------------------------3---------------3-----|

 |               |               |               |    
           
|----------------------------------------------------------------|
|3---------------1---------------0-------------------------------|
|----------0-------------------------------------3---------------|
|----------------------------------------------------------------|

 |               |               |               |    
           
|----------------------------------------------------------------|
|----------------3---------------0-------------------------------|
|1-----------------------------------------------1---------------|
|----------------------------------------------------------------|

 |               |               |               |    
           
|----------------3---------------0-------------------------------|
|1-----------------------------------------------1---------------|
|----------1-----------------------------------------------1-----|
|----------------------------------------------------------------|

 |               |               |               |    
           
|----------------1---------------0-------------------------------|
|3---------------------------------------------------------------|
|------------------------------------------------1---------------|
|----------------------------------------------------------------|

 |               |               |               |    
           
|----------------------------------------------------------------|
|------------------------------------------------3---------------|
|0---------0-----2---------------1-------------------------------|
|------------------------------------------1---------------1-----|

 |               |               |               |    
           
|------------------------------------------------2---------------|
|----------------2---------------0-------------------------------|
|0-----------------------------------------0---------------0-----|
|----------------------------------------------------------------|

 |               |               |               |    
           
|----------------7-----------------------------------------------|
|5---------------------------------------------------------------|
|----------------------------------------------------------------|
|--------------------------------8---------------8---------------|

 |               |               |               |    
           
|--------------------------------2---------------5---------------|
|3---------------5-----------------------------------------------|
|----------------------------------------------------------------|
|----------------------------------------------------------------|

 |               |               |               |    
           
|0---------------------------------------------------------------|
|------------------------------------------------2---------------|
|----------------2---------------3---------3---------------------|
|----------------------------------------------------------------|

 |               |               |               |    
           
|--------------------------------5-------------------------------|
|3---------------------------------------------------------------|
|----------------------------------------------------------------|
|----------------------------------------------------------------|

 |               |               |               |    
           
|----------------------------------------------------------------|
|--------------------------------0-------------------------------|
|0---------------------------------------------------------------|
|----------------------------------------------------------------|

 |               |               |               |    
           
|0---------------------------------------------------------------|
|--------------------------------0-------------------------------|
|----------------------------------------------------------------|
|----------------------------------------------------------------|

 |               |               |               |    
           
|----------------------------------------------------------------|
|----------------------------------------------------------------|
|3-------------------------------3-------------------------------|
|----------------------------------------------------------------|

 |               |               |               |    
           
|----------------------------------------------------------------|
|3-------------------------------3-------------------------------|
|----------------------------------------------------------------|
|----------------------------------------------------------------|

 |               |               |               |    
           
|----------------------------------------------------------------|
|0-------------------------------0-------------------------------|
|----------------------------------------------------------------|
|----------------------------------------------------------------|

 |               |               |               |    
           
|0-------------------------------0-------------------------------|
|----------------------------------------------------------------|
|----------------------------------------------------------------|
|----------------------------------------------------------------|

 |               |               |               |    
           
|0---------------------------------------------------------------|
|----------------------------------------------------------------|
|--------------------------------3-------------------------------|
|----------------------------------------------------------------|

 |               |               |               |    
           
|----------------------------------------------------------------|
|3-------------------------------3-------------------------------|
|----------------------------------------------------------------|
|----------------------------------------------------------------|

 |               |               |               |    
           
|----------------------------------------------------------------|
|--------------------------------3-------------------------------|
|3---------------------------------------------------------------|
|----------------------------------------------------------------|

 |               |               |               |    
           
|----------------------------------------------------------------|
|----------------------------------------------------------------|
|1-------------------------------1-------------------------------|
|----------------------------------------------------------------|

 |               |               |               |    
           
|--------------------------------3-------------------------------|
|1---------------------------------------------------------------|
|----------------------------------------------------------------|
|----------------------------------------------------------------|

 |               |               |               |    
           
|--------------------------------5-------------------------------|
|3---------------------------------------------------------------|
|----------------------------------------------------------------|
|----------------------------------------------------------------|

 |               |               |               |    
           
|----------------------------------------------------------------|
|--------------------------------0-------------------------------|
|0---------------------------------------------------------------|
|----------------------------------------------------------------|

 |               |               |               |    
           
|--------------------------------7-------------------------------|
|5---------------------------------------------------------------|
|----------------------------------------------------------------|
|----------------------------------------------------------------|

 |               |               |               |    
           
|0---------------------------------------------------------------|
|----------------------------------------------------------------|
|--------------------------------3-------------------------------|
|----------------------------------------------------------------|

 |               |               |               |    
           
|----------------------------------------------------------------|
|3-------------------------------3-------------------------------|
|----------------------------------------------------------------|
|----------------------------------------------------------------|

 |               |               |               |    
           
|1---------------------------------------------------------------|
|----------------------------------------------------------------|
|--------------------------------4-------------------------------|
|----------------------------------------------------------------|

 |               |               |               |    
           
|0---------------------------------------------------------------|
|--------------------------------0-------------------------------|
|----------------------------------------------------------------|
|----------------------------------------------------------------|

 |               |               |               |    
           
|----------------------------------------------------------------|
|----------------------------------------------------------------|
|3-------------------------------3-------------------------------|
|----------------------------------------------------------------|

 |               |               |               |    
           
|----------------------------------------------------------------|
|3-------------------------------3-------------------------------|
|----------------------------------------------------------------|
|----------------------------------------------------------------|

 |               |               |               |    
           
|----------------------------------------------------------------|
|0-------------------------0-----3-------------------------------|
|----------------------------------------------------------------|
|----------------------------------------------------------------|

 |               |               |               |    
           
|0-------------------------------0-------------------------------|
|----------------------------------------------------------------|
|----------------------------------------------------------------|
|----------------------------------------------------------------|

 |               |               |               |    
           
|0---------------------------------------------------------------|
|----------------------------------------------------------------|
|--------------------------------3-------------------------------|
|----------------------------------------------------------------|

 |               |               |               |    
           
|------------------------------------------------0---------------|
|----------------0---------------1-------------------------------|
|3---------------------------------------------------------------|
|----------------------------------------------------------------|

 |               |               |               |    
           
|--------------------------------2---------------5---------------|
|3---------------5-----------------------------------------------|
|----------------------------------------------------------------|
|----------------------------------------------------------------|

 |               |               |               |    
           
|----------------------------------------------------------------|
|----------------------------------------------------------2-----|
|1---------1-----0-----------------------------------------------|
|--------------------------------3---------------1---------------|

 |               |               |               |    
           
|----------------3---------------0-------------------------------|
|1-----------1-----------------------------------1---------------|
|----------------------------------------------------------------|
|----------------------------------------------------------------|

 |               |               |               |    
           
|----------------5-----------------------------------------------|
|3-----------3-------------------5-------------------------------|
|----------------------------------------------------------------|
|------------------------------------------------6---------------|

 |               |               |               |    
           
|----------------------------------------------------------------|
|----------------2-----------------------------------------------|
|0-------------------------------1---------1-----1---------------|
|----------------------------------------------------------------|

 |               |               |               |    
           
|2---------------------------------------------------------------|
|----------------2---------------0---------------0-----2---3-----|
|----------------------------------------------------------------|
|----------------------------------------------------------------|

 |               |               |               |    
           
|----------------7---------------5-------------------------------|
|5-----------5-----------------------------------5---------------|
|----------------------------------------------------------------|
|----------------------------------------------------------------|

 |               |               |               |    
           
|----------------------------------------------------------------|
|3---------------------------------------------------------------|
|--------------------------------3-------------------------------|
|----------------------------------------------------------------|

 |               |               |               |    
           
|0---------------------------------------------------------------|
|----------------------------------------------------------------|
|--------------------------------3-------------------------------|
|----------------------------------------------------------------|

 |               |               |               |    
           
|--------------------------------2---------------5---------------|
|3---------3-----5-----------------------------------------------|
|----------------------------------------------------------------|
|----------------------------------------------------------------|

 |               |               |               |    
           
|----------------------------------------------------------------|
|3-------------------------3-------------------------------------|
|----------------------------------------------------------------|
|----------------------------------------------------------------|


Created with TablEdit http://www.tabledit.com/


     
Добавлено: 10.07.2013
Другие материалы по этой песне:

Страница создана 14.05.2012
http://primanota.ru/george-gershwin/a-foggy-day-in-london-town-chords.htm
Привет, Гость.
Предлагаем пройти революционный курс по гитаре.
Подарок от PrimaNota.Ru, забирай!