PrimaNota.ru - самый крупный в мире бесплатный архив песенных текстов, аккордов, табулатур и нот


George Ezra - Bupapest - таба, видео

Регистрация Запомнить меня
Войти через:  Facebook Google Twitter Vk Yandex Mail.ru

George Ezra - Bupapest - таба, видео

Печатать
Просмотров: 126
Tabbed by: S_Minza113
E-mail: DrumMaster101.sm@gmail.com

Tuning: EADGBe (DGCFAd if you want to play along to the studio version)

This is "Budapest" by George Ezra.
There are some variation notes between chords, but it's easier to figure them out by 
listening to the song.
For any explanation, e-mail me.

Intro:
e|-----------------------------------------------------------------|
B|-----3-------3-------3-------3-------3-------3-------3-------3---|
G|-----0-------0-------0-------0-------0-------0-------0-------0---|   (x2)
D|-----0-------0-------0-------0-------0-------0-------0-------0---|
A|--------0h2-------------0h2--------------0h2------------0h2------|
E|--3--------------3---------------3---------------3---------------|

Verse:
"My house in Budapest..."
e|-----------------------------------------------------------------|
B|-----3-------3-------3-------3-------3-------3-------3-------3---|
G|-----0-------0-------0-------0-------0-------0-------0-------0---|   (x2)
D|-----0-------0-------0-------0-------0-------0-------0-------0---|
A|---------2--------------2----------------2---------------2-------|
E|--3--------------3---------------3---------------3---------------|

"But for you, oooh, you..."
e|-----------------------------------------------------------------|
B|-----1-------1-------1-------1-------1-------1-------1-------1---|
G|-----0-------0-------0-------0-------0-------0-------0-------0---|
D|-----2-------2-------2-------2-------2-------2-------2-------2---|
A|--3------3-------3-------3-------3-------3-------3-------3-------|
E|-----------------------------------------------------------------|
                                                                       (x2)
"I'd leave it all..."
e|-----------------------------------------------------------------|
B|-----3-------3-------3-------3-------3-------3-------3-------3---|
G|-----0-------0-------0-------0-------0-------0-------0-------0---|
D|-----0-------0-------0-------0-------0-------0-------0-------0---|
A|--------0h2-------------0h2--------------0h2------------0h2------|
E|--3--------------3---------------3---------------3---------------|


Chorus:
"Give me one good reason..."
e|-----2-------2-------2-------2-----------------------------------|
B|-----3-------3-------3-------3-------1-------1-------1-------1---|
G|-----2-------2-------2-------2-------0-------0-------0-------0---|
D|--0------0-------0-------0-----------2-------2-------2-------2---|
A|---------------------------------3-------3-------3-------3-------|
E|-----------------------------------------------------------------|
                                                                       (x2)
e|-----------------------------------------------------------------|
B|-----3-------3-------3-------3-------3-------3-------3-------3---|
G|-----0-------0-------0-------0-------0-------0-------0-------0---|
D|-----0-------0-------0-------0-------0-------0-------0-------0---|
A|--------0h2-------------0h2--------------0h2------------0h2------|
E|--3--------------3---------------3---------------3---------------|

Добавлено: 25.06.2015
Вам также может быть интересно:
Другие материалы по этой песне:
  • Аккорды и текст

Страница создана 25.06.2015
http://primanota.ru/george-ezra/bupapest-chords.htm
Привет, Гость.
Предлагаем пройти революционный курс по гитаре.
Подарок от PrimaNota.Ru, забирай!