PrimaNota.ru - самый крупный в мире бесплатный архив песенных текстов, аккордов, табулатур и нот


George Benson - The Cooker - таба, видео

Регистрация Запомнить меня
Войти через:  Facebook Google Twitter Vk Yandex Mail.ru

George Benson - The Cooker - таба, видео

Печатать
Просмотров: 99
-------------------------------------------------------------------------------
                            The Cooker - George Benson
-------------------------------------------------------------------------------
 
  Ab7                      
e|----4-----------|----------------|----4-----------|----------------|
B|------7-4-------|----------------|------7-4-------|----------------|
G|----------6-4---|6-4-------------|----------6-4---|6-4-------------|
D|--------------6-|----6---6-------|--------------6-|----6-4---------|
A|----------------|----------------|----------------|----------------|
E|----------------|----------------|----------------|----------------|

  Db7                               Ab7
e|----4-----------|----------------|----4-----------|----------------|
B|------7-4-------|----------------|------7-4-------|----------------|
G|----------6-4---|6-4-------------|----------6-4---|6-4-------------|
D|--------------6-|----6---6-------|--------------6-|----6-4---------|
A|----------------|----------------|----------------|----------------|
E|----------------|----------------|----------------|----------------|

  Bbm7             A7               Ab7
e|--8-6-----------|----------------|----4-----------|----------------|
B|------8-6-------|--7-5-----------|------7-4-------|----------------|
G|----------------|------6-4-6-----|----------6-4---|6-4-------------|
D|----------8-----|----------------|--------------6-|----6---6-------|
A|----------------|----------------|----------------|----------------|
E|----------------|----------------|----------------|----------------|



************************************
Tuning: Standard
Time: 4/4
Tempo: Fast
Rhythm: Each - represents one sixteenth note.

Example: First 2 measures with rhythm written out

  Ab7
 |1e+a2e+a3e+a4e+a|1e+a2e+a3e+a4e+a|
e|----4-----------|----------------|
B|------7-4-------|----------------|
G|----------6-4---|6-4-------------|
D|--------------6-|----6---6-------|
A|----------------|----------------|
E|----------------|----------------|
 

************************************
Добавлено: 06.06.2016
Другие материалы по этой песне:
  • Аккорды и текст

Страница создана 06.06.2016
http://primanota.ru/george-benson/cooker-chords.htm
Привет, Гость.
Предлагаем пройти революционный курс по гитаре.
Подарок от PrimaNota.Ru, забирай!