PrimaNota.ru - самый крупный в мире бесплатный архив песенных текстов, аккордов, табулатур и нот


Georg Riedel - Idas Sommarvisa - таба, видео

Регистрация Запомнить меня
Войти через:  Facebook Google Twitter Vk Yandex Mail.ru

Georg Riedel - Idas Sommarvisa - таба, видео

Печатать
Просмотров: 110
Авторы музыки: Georg Riedel
Авторы текста: Astrid Lindgren
-------------------------------------------------------------------------------
                             Idas Sommarvisa - Georg Riedel(Astrid Lindgren)
-------------------------------------------------------------------------------
Tabbed by: Teslasaur (Martin Borgman)
Tuning: EADGBE Capo on 2nd fret
Excuse my poor formating. Every bar is suppose to be four beats.


e|-------------------|-----0--1--0-----|----------------|------------0-------------|
B|-----1----1--1--1--|1h3-----1-----3--|1--0---0--0--0-0|h1h3-1---------1-----1----|
G|--0--0----0--0--0--|--0-----2-----0--|---0---0--0--0--|-----0----0----------0----|
D|-------------------|-----------------|----------------|--------------------------|
A|-----3-------------|--3-----3-----3--|----------------|-----3--3---------3-------|
E|-------------------|-----------------|---3------------|--------------------------|


e|------------------|-----0--1--0--------|----------------|------------0-------------|
B|-----1---1--1--1--|1h3-----1-----3---3-|-3-0---0--0--0-0|h1h3-1---------1-----1----|
G|---0-0---0--0--0--|--------------2-2---|---0---0--0--0--|-----0----0----------0----|
D|------------------|--------------------|----------------|--------------------------|
A|-----3---2-----0--|--------------------|----------------|-----3--3---------3-------|
E|------------------|--3-----1---1/2-----|---3------------|--------------------------|


e|--0--3---0-0-3---0-0-|-1--3--5-----------------|------------3-1-|0--------0--------|
B|---------------------|-1--1--6--6--6-----6-----|6\3-----3-3-----|------0-----0-----|
G|---------------------|-2--2--5-----5-----5----5|--4---0---0-----|---1------------1-|
D|--2--2---2-2-2---2-2-|-------7--------------7--|----0-----------|--------------2---|
A|---------------------|-------5--------5--------|----------------|------------------|
E|-----0---------------|-1--0--------------------|--3-------1-----|0-----------------|


e|----------------|-----0--1--0--------|----------------|------------0-------------|
B|3--1---1--1--1--|1h3-----1-----3---3-|-3-0---0--0--0-0|h1h3-1---------1-----1----|
G|---0---0--0--0-----------------------|---0---0--0--0--|-----0----0----------0----|
D|-------------------------------------|----------------|--------------------------|
A|---0---------------------------------|----------------|-----3--3---------3-------|
E|-------------3--|--------1---1/2-----|---3------------|--------------------------|


e|-------------------|-----0--1--0-----|----------------|------------0-------------|
B|-----1----1--1--1--|1h3-----1-----3--|1--0---0--0--0-0|h1h3-1---------1-----1----|
G|--0--0----0--0--0--|--0-----2-----0--|---0---0--0--0--|-----0----0----------0----|
D|-------------------|--------3-----3--|----------------|--------------------------|
A|-----3-------------|--3--------------|----------------|-----3--3---------3-------|
E|-------------------|-----------------|---3------------|--------------------------|


e|------------------|-----0--1--0--------|----------------|------------0-------------|
B|-----1---1--1--1--|1h3-----1-----3---3-|-3-0---0--0--0-0|h1h3-1---------1-----1----|
G|---0-0---0--0--0--|--------------2-2---|---0---0--0--0--|-----0----0----------0----|
D|------------------|--------------------|----------------|--------------------------|
A|-----3---2-----0--|--------------------|----------------|-----3--3---------3-------|
E|------------------|--3-----1---1/2-----|---3------------|--------------------------|


e|--0--3---0-0-3---0-0-|-1--3--5-----------------|------------3-1-|0--------0--------|
B|-------------2-------|-1--1--6--6--6-----6-----|6\3-----3-3-----|------0-----0-----|
G|---------------------|-2--2--5-----5-----5----5|--4---0---0-----|---1------------1-|
D|--2--2---2-2-2---2-2-|-------7--------------7--|----0-----------|--------------2---|
A|-------------0-------|-------5--------5--------|----------------|------------------|
E|-----0---------------|-1--0--------------------|--3-------1-----|0-----------------|


e|----------------|-----0--1--0--------|----------------|------------0-------------|
B|3--1---1--1--1--|1h3-----1-----3---3-|-3-0---0--0--0-0|h1h3-1---------1-----1----|
G|---0---0--0--0-----------------------|---0---0--0--0--|-----0----0----------0----|
D|-------------------------------------|----------------|--------------------------|
A|---0---------------------------------|----------------|-----3--3---------3-------|
E|-------------3--|--------1---1/2-----|---3------------|--------------------------|


************************************

| /   slide up
| \   slide down
| h   hammer-on
| p   pull-off
| ~   vibrato
| +   harmonic
| x   Mute note
| b   Bend
| pb  Pre-bend
| br  Bend release
| pbr Pre-bend release
| brb Bend release bend

************************************
Добавлено: 16.08.2015
Вам также может быть интересно:
Другие материалы по этой песне:
  • Аккорды и текст

Страница создана 16.08.2015
http://primanota.ru/georg-riedel/idas-sommarvisa-chords.htm
Привет, Гость.
Предлагаем пройти революционный курс по гитаре.
Подарок от PrimaNota.Ru, забирай!