PrimaNota.ru - самый крупный в мире бесплатный архив песенных текстов, аккордов, табулатур и нот


Georg Friedrich Händel - Air of bass (из 'Мессии' №311) - аккорды и текст

Регистрация Запомнить меня
Войти через:  Facebook Google Twitter Vk Yandex Mail.ru

Georg Friedrich Händel - Air of bass (из 'Мессии' №311) - аккорды и текст

Печатать
Просмотров: 86
Air of bass (из 'Мессии' №311)
Georg Friedrich Händel
Строй: стандартный
Тональность: Dm
Размер: 3/4

Ария
Allegro larghetto
    1
E||---|----------1--0----|----6--5----------|------------------|
B||---|-3--------------3-|-2--------------1-|------------------|
G||-2-|------------------|------------------|-3--2--0--------3-|
D||---|-0-----0----------|------------------|----------3--2----|
A||---|-------------1----|-0----------------|-------1-----3----|
E||---|------------------|----------3--2----|-3----------------|

 4
E|----3--1-------10-|-9-----7--8--------8-|-7--3-5--6--------6-|
B|------------------|----10----------7----|-3----------3--5----|
G|-2-------------10-|-9-----------9--7----|-0-------------5----|
D|-3-------2--0-----|----------------0----|--------------------|
A|------------------|-0-------------------|--------------------|
E|------------------|---------------------|--------------------|

 7
E|-5--6-5-3---------------|------------------------|----3-1--0-|
B|----------6-5-3-5-3-2-0-|------------------------|----2-3----|
G|--------3-------0-------|-2--3-2-0---------------|-2--2-2----|
D|-3----------------------|----------3-2-0-2-0-----|-5----0----|
A|------------------------|-0------------------4-2-|-4--0------|
E|------------------------|--------0-------3-------|-----------|

 10
E|----------------------|--------------------|----------------|
B|----------------------|--------------------|----------------|
G|----------------2-----|--------------0-----|--2-----------2-|
D|----------------------|--0---2--3----------|----------------|
A|----------------------|--------------------|----------------|
E|----------------------|--------------------|----------------|

E|--------------------|--------------------|-------------------|
B|-6-5--3--2--------3-|--3-----------------|-------------------|
G|-3-------2----------|--------------3-----|--2-----------2----|
D|-5-------2----------|--3-----------5--3--|--2-----------2----|
A|---------0-----0----|--5-----------5-----|--3-----3--5--3--3-|
E|-3------------------|--------------------|-------------------|

 13
E|--------------------|----|
B|--------3--------5--|--2-|
G|--3--2--------------|----|
D|--------------------|----|
A|--------------------|----|
E|--------------------|----|

E|--------------------|--------------------|--------------0----|
B|--------------------|-----0--2-----0--2--|--3--------6-----3-|
G|--2-----0-----------|--2-----2--2--0--2--|--2--0-------------|
D|--0-----------0--2--|--------------------|--3-----3----------|
A|--1-----------1-----|--0-----0-----------|--------5-----1----|
E|--------------------|--------------3-----|-------------------|

 16
E|--------------------|--------------------|-------------------|
B|--------------------|--1-----1-----3--1--|-------------------|
G|--------------2--3--|-----3--------------|--3--2--0-----0--2-|
D|--------------------|--------------------|-------------------|
A|--------------------|--------------------|-------------------|
E|--------------------|--------------------|-------------------|

E|-----6--5-----------|--------------------|-----2--3----------|
B|--2-----------2-----|--1-----------------|--3----------------|
G|--2--------3--2--0--|-----3--2--0--------|--3-----------3----|
D|--------------------|--3-----------4--2--|--0-----------0----|
A|--0-----------------|--------------5-----|-----------0-------|
E|--------------------|--------------------|--3-----------3--1-|

 19
E|--------------------|--------------------|-------------------|
B|--------------1-----|-----------------3--|--2-----1--------3-|
G|--3--2--3--------3--|--2--0--------2-----|-----2-------------|
D|--------------------|--------3-----------|-------------------|
A|--------------------|--------------------|-------------------|
E|--------------------|--------------------|-------------------|

E|--------------------|--------------------|----------------|
B|--------------------|--1--------------3--|--2-----1-------|
G|--3--2--0-----------|--2-----------2--2--|--2-----2--0--2-|
D|-----------3--2--0--|--3-----3-----3--0--|--2-----0-----4-|
A|--3-----------3-----|--------------------|--0-----------5-|
E|--0-----------------|-----------0--1-----|--------2-------|

 22
E|--------------------|--------------------|------------------|
B|--0--------------1--|--------------------|------------------|
G|-----0--3-----------|--2-----0-----------|--2---------------|
D|--------------------|-----------3--2--0--|----------------0-|
A|--------------------|--------------------|------------------|
E|--------------------|--------------------|------------------|

E|------------------|--------------------|------------------10-|
B|--0---------------|-----1--------------|-----------3--10-----|
G|--0-----3--2--0---|--2-----3--2--0-----|--2-----------10-----|
D|--0-----------2---|--3-----------2--0--|--------3-----0------|
A|--------3-----3---|--------------1-----|--0------------------|
E|--3-----0---------|--------1-----------|---------------------|

 25
E|-------------------|------------------|----------------------|
B|-------------------|------------------|----------------------|
G|--2----------------|--0---------------|--------------0--2--3-|
D|-----------------0-|------------------|--3-------------------|
A|-------------------|----------------3-|----------------------|
E|-------------------|------------------|----------------------|

E|-9----7-8------8-|-7-3-5-6--------6-|-5--6-5-6-5-3-1-3-1-0---|
B|---10--------7---|-3--------3--5----|----------------------3-|
G|-9--------9--7---|-0-----------5----|------------0---2---3---|
D|-------------0---|------------------|-3----------------------|
A|-0---------------|------------------|------------------------|
E|-----------------|------------------|------------------------|

 28
E|-----------------------|--------------------|----------------|
B|--1--------------------|--------------1-----|----------------|
G|-----------------------|--------------------|--------------3-|
D|-----------------------|--------------------|--0-------------|
A|-----------------3--3--|--------------------|----------------|
E|-----------------------|--------------------|----------------|

E|------------------------|-----------------|-5--1--3--5--6--3-|
B|-1----------------------|-1----1-----1----|-6--3--5--6--8--6-|
G|----3-2-3-2-0---0-------|-2----2-----2----|------------------|
D|--------------3---3-2-0-|-2----2-----3----|-0-----0-----0----|
A|-3--------------3---1---|-0----0-----3----|------------------|
E|------------------------|---------3--1--0-|------------------|

 31
E|--------------------|--------------------|----|
B|-----------1--------|--------1-----------|----|
G|--3-----------2-----|--0-----------------|----|
D|--------------------|-----3--------------|--3-|
A|--------------------|--------------3-----|----|
E|--------------------|--------------------|----|

E|--------------------|--------------------|-----------------1-|
B|--------------------|--------1-----------|--------------1----|
G|--3--------0--2--0--|--0--------3--2--0--|--2-----------2----|
D|--2--2--3--2--3-----|--0--3-----------2--|-----------3--3----|
A|-----3--5-----------|--1-----3-----------|--------0----------|
E|--------------------|--------------------|--1----------------|

 34
E|-0----------------1-|----------------3-|--2----0--1--------3-|
B|----1-3--4----------|-3--------3-------|-----3----------0----|
G|-0----------0--2----|-------3-----0----|--2----------2-------|
D|---------------3----|----3--------1----|--0------------------|
A|-3------------------|-1-----------3----|---------------------|
E|--------------------|------------------|----------------3----|

 37
E|--------------------|--------------------|----------------|
B|--------------------|--------------------|----------------|
G|--------------------|---------------0----|--1-----------1-|
D|--------------------|--2-----2-----------|----------------|
A|--------------------|--------------------|----------------|
E|--------------------|--------------------|----------------|

E|--0--------------0--|--1-----5-----7-----|--8----------------|
B|-----0--1--------1--|--1-----5-----6-----|--5--------0--1----|
G|--0--------1--2--3--|--2-----5-----7-----|--5--------------2-|
D|-----3--2--0--------|--3-----------0-----|--------7-----2----|
A|--3-----------3-----|--------7-----------|--0-----------0----|
E|--------------------|--------------------|-------------------|

 40
E|--------------------|--------------------|----------------|
B|--0--------1--------|--------------------|----------------|
G|--------------2-----|--1-----------------|--------2-------|
D|--------------------|--------2-----------|--2-----------2-|
A|--------------------|--------------------|----------------|
E|--------------------|--------------------|----------------|

E|--------------------|--------------------|----------------|
B|--0--------1-----3--|--------------------|----------------|
G|--------------2-----|--1-----1--------1--|--2--------4--5-|
D|--3-----2-----3-----|--2--4-----2--4--2--|--2-----------2-|
A|--5-----------------|--------------5-----|--3-----------0-|
E|--------------------|--0-----------------|----------------|

 43
E|--------------------|--------------------|-------------------|
B|--------------------|--3--1--0-----------|-------------------|
G|--------------------|-----------2--0-----|-----------2--0--2-|
D|--3-----------3-----|-----------------3--|--2----------------|
A|--------------------|--------------------|-------------------|
E|--------------------|--------------------|-------------------|

E|--------------------|--------------------|----------------|
B|--------------------|--------------3-----|--3-----1-------|
G|--5-----3-----2-----|--0-----------------|--------------2-|
D|--3-----3-----3-----|--3-----------3-----|--2-----------2-|
A|--5-----------5-----|--2-----------2-----|--3-----0-----3-|
E|--------------------|--------3-----------|----------------|

 46
E|--------------------|--------------------|-------------------|
B|--------------------|-----------1--0--1--|-----------1--0----|
G|-----------4--2--4--|--1-----------------|--2--1--2--------2-|
D|--4-----------------|--------------------|-------------------|
A|--------------------|--------------------|-------------------|
E|--------------------|--------------------|-------------------|

E|--------------------|--------0-----------|-------------------|
B|--------3-----0-----|--0-----------3-----|--1-----------3--1-|
G|--2-----------------|--1-----------1-----|--2----------------|
D|--4-----------4-----|--2-----------2-----|--3--------2--0----|
A|--5-----2-----5-----|--------------------|-------------------|
E|--------------------|--------0-----------|-------------------|

 49
E|--------------------|----------------------|----------|
B|--------------------|----------------------|----------|
G|--1--------1--2-----|----------------------|--2-----2-|
D|-----2--4-----------|--0-----2----------2--|----------|
A|--------------------|----------------------|----------|
E|--------------------|----------------------|----------|

E|-----------1--0-----|----------------------|----|
B|--0--------------3--|--1-0-----------------|----|
G|--1--------0--2-----|-------2--1--------2--|--2-|
D|--2--------0--------|--0-------2-----0-----|--2-|
A|--------------3-----|----------------------|--3-|
E|--------------------|----------------0-----|--5-|
Добавлено: 06.12.2015
Другие материалы по этой песне:
  • Аккорды и текст

Страница создана 06.12.2015
http://primanota.ru/georg-friedrich-handel/air-of-bass-iz-messii-n311-chords.htm
Привет, Гость.
Предлагаем пройти революционный курс по гитаре.
Подарок от PrimaNota.Ru, забирай!