PrimaNota.ru - самый крупный в мире бесплатный архив песенных текстов, аккордов, табулатур и нот


Genne And Debbie - Playboy - аккорды и текст, видео

Регистрация Запомнить меня
Войти через:  Facebook Google Twitter Vk Yandex Mail.ru

Genne And Debbie - Playboy - аккорды и текст, видео

Печатать
Просмотров: 94
Playboy
Genne And Debbie
Intro:
        --------------------|-------------------|--------------------|----------------|
        --------------------|-------------------|--------------------|----------------|
        2-2-2-2-2-----------|1-1-1-1-1----------|2-2-2-2-2---0-------|----------------|
        0-0-0-0-0-----------|2-2-2-2-2----------|2-2-2-2-2---0-------|2---------------|
        --------------0-----|------------2------|--------------------|4---------------|
        --------------------|-------------------|--------------------|----------------|


         
D                                     F#  
Hey boy, to me you're just a playboy 
                                   Bm 
Never mean a word you say, boy 
                           G               A 
I'm so afraid you'll go away and leave me lonely

fill 1:          fill 2:

        v    v           v    v
        -----|----       ------ |----
        -----|----        ------|----
        9r---|7---        9r7---|6---
        -----|----        ------|----
        -----|----        ------|----
        -----|----        ------|----

D                                 F# 
Why girl do you believe a lie girl 
                                     Bm 
Why can't you see you're my world 
                            G 
Believe me when I say to you 
   A 
I love you only 
 F#m      B                           E   
I never knew that love could hurt me like this 
      D                                 C        A7 
Till you came along with your kiss 
          D                   B 
Then I fell under your spell 
                      G                        A                         
Knowing quite well that you would only hurt me

             fill 3:              fill 4:

        v   v    v           v   v    v
        ----------|----        ----------|----
        ----------|----        ----------|----
        ----------|----        ----------|----
        4---5-----|7---        4---7-----|9---
        5---7-----|9---        6---7-----|9---
        ----------|----        ----------|----

D                                       F# 
Gee girl why can't I make you see girl 
                                  Bm 
Just what you mean to me girl 
                                    G          A 
Then you would know I'd never go away without you 
 D                                 F# 
Oh boy I wish that I could know boy 
                           Bm 
If what you say is so boy 
                            G                         A 
Then I would never care what they may say about you 
 F#m     B                           E  
I never knew that love could hurt me like this 
     D                                   C       A7  
Till you came along with your kiss 
          D                      B  
Then I fell knowing quite well 
                               G                   A 
That someone would tell you I would only hurt you 
 D                                             F# 
Hey now does it matter what they say now 
                            Bm 
Gonna love you anyway now 
                          G 
If you and I would try together 
 A                   D      G 
I know we'll find love 
 A          D  
We'll find love (x3 fade on last)
Добавлено: 10.06.2015
Другие материалы по этой песне:
  • Аккорды и текст

Страница создана 10.06.2015
http://primanota.ru/genne-and-debbie/playboy-chords.htm
Привет, Гость.
Предлагаем пройти революционный курс по гитаре.
Подарок от PrimaNota.Ru, забирай!