PrimaNota.ru - самый крупный в мире бесплатный архив песенных текстов, аккордов, табулатур и нот


Genitallica - Ya Nada Es Igual - таба, видео

Регистрация Запомнить меня
Войти через:  Facebook Google Twitter Vk Yandex Mail.ru

Genitallica - Ya Nada Es Igual - таба, видео

Печатать
Просмотров: 141
ta chida la rola voten por ella...pero espero por bien...


INTRO/RIFF 1
E---------0------0------2---0-2---------0--------------|
B-----------2----2----2---------2-----3---3------------|
G-----2-------2--1--2-----2---------2-------2----------|
D---2---2--------2----------------0-----------0--------|
A-0--------------0-------------------------------------|
E------------------------------------------------------|
  LaM                    Do#m
Ahora te das cuenta que nunca te lo perdonaras
     Fa#m                  ReM   MiM
hay cosas en la vida que jamas podras cambiar
        LaM                                  Do#m
si te fuiste fue por que quisiste lo que tu querias

ya lo conseguiste
        Fa#m                ReM
nunca vuelvas a mi lado tu lugar ya esta ocupado
MiM    LaM       Fa#m
si te vaz ya lo veras te arrepentiras
         ReM
y no encontraras a alguien igual

 (con el riff se toca la version original de la canción y con
              los acordes su acompañamiento)
    Riff 2
E-------------------------------------------|
B-------------------------------------------|
G------------------4-----7------------------|
D-7--------2-------4-X8---7-X8--------------|
A-7-X8-----2-X8----2------5-----------------|
E-5--------0--------------------------------|

LaM    MiM      Sim               ReM             LaM
  Por que te alejaste ya es muy tarde ya nada es igual
       MiM      Sim               ReM             LaM
  por que me dejaste ya es muy tarde ya nada es igual
       MiM      Sim        ReM                           LaM
  por que regresaste la cagaste te chingaste ya nada es igual

 SOLO
E-5--9-10-12-10-9-10-9--5--5-7-5--3-0-------------|
B-------------------------------------3-2---------|
G-------------------------------------------------|
D-------------------------------------------------|
A-------------------------------------------------|
E-------------------------------------------------|

  (CON RIFF 1)

  LaM                    Do#m
Aqui vienes otra vez diciendome que lo has pensado
           Fa#m              ReM
y lo que tuvimos juntos no debio haber cambiado
        LaM
no te niego que pasamos buenos ratos
        Do#m                          Fa#m
fueron muchos hoteles baratos no te aferres al pasado
    ReM
la verdad nunca estuve enamorado
MiM    LaM       Do#m          Fa#m             ReM
si te vas ya lo veras te arrepentiras y no encontraras a
          LaM     Do#m         Fa#m       ReM
nadie igual si te vaz ya lo veras no encontraras a nadie igual


SIGUE EL CORO CON EL RIFF 2 Y DESPUES DE ESO VA ESTO:


SOLO 2
E------------------------------------------------------7-9-10-12---|
B-----------------------------------10^10-10---------10---------10-|
G-------2/9-7-6-7--2/9-2/9-7-6-7-6-9--------9-7-6-7-9--------------|
D-7---------------7---------------7--------------------------------|
A-7-X12------------------------------------------------------------|
E-5----------------------------------------------------------------|

E------------------------------------------------------------10-12-|
B-5--------------------------------------------------------14------|
G--6-7-7-6-4---------------------------------------11-13-14--------|
D---7---7-7------11-12-14-----11-12-14-----11-12-14----------------|
A-----------12-14--------12-14--------12-14------------------------|
E------------------------------------------------------------------|

Y DESPUES DE ESO VUELVE EL CORO Y SIGUE ESTO

          GUITARRA 2
E-----0---0----2-0-2-----0----------0---0----2-0-2--|
B------2--2---2-----2---3-3----------2--2---2-----2-|
G---2---2-1--2--2------2---2------2---2-1--2--2-----|
D--2-2----2-----------0-----0----2-2----2-----------|
A-0-------0---------------------0-------0-----------|
E---------------------------------------------------|
          GUITARRA 1
E-10-10--5-9-10-12-10-9-10-9-5-7-5----|
B-------------------------------------|
G-------------------------------------|
D-------------------------------------|
A-------------------------------------|
E-------------------------------------|
alli acaba dudas alli esta mi correo
Добавлено: 02.03.2012
Другие материалы по этой песне:

Страница создана 02.03.2012
http://primanota.ru/genitallica/ya-nada-es-igual-chords.htm
Привет, Гость.
Предлагаем пройти революционный курс по гитаре.
Подарок от PrimaNota.Ru, забирай!