PrimaNota.ru - самый крупный в мире бесплатный архив песенных текстов, аккордов, табулатур и нот


Genesis - Watcher Of The Skies - текст песни, бас-таба, видео

Регистрация Запомнить меня
Войти через:  Facebook Google Twitter Vk Yandex Mail.ru

Genesis - Watcher Of The Skies - текст песни, бас-таба, видео

Печатать
Просмотров: 110
-------------------------------------------------------------------------------
                        Watcher Of The Skies - Genesis
-------------------------------------------------------------------------------

Tabbed by: Russell Pagden
E-mail: irradium97@gmail.com

Tuning: Standard

[Intro]

(Slow crescendo all the way through - first bar is almost inaudible)

G|-----------------------------------------------|
D|-----------------------------------------------|
A|---(keys play for about a minute and a half)---|
E|-----------------------------------------------|

G|-------------------------| 9x
D|-------------------------|
A|-9999-9-9-9-9-99-999-999-|
E|-------------------------|

G|--------------------------| 3x
D|--------------------------|
A|-4/999-9-9-9-9-99-999-999-|
E|--------------------------|

G|-----------------------------------------| 
D|---111111-11-11-11-11-1111-111111-111111-|
A|-4/9-9-9--9--9--9--9--9-9--9-9-9--9-9-9--|
E|-----------------------------------------|

G|------------------------------| 
D|-11111111-11-11-11-11-1111-11-|
A|-9-9-9-9--9--9--9--9--9-9--9--|
E|------------------------------|

[Verses]

G|------------------11--11--| 
D|--------------------------|
A|-4/999-9-9-9-9-99---9---9-|
E|--------------------------|

G|------------------11--11--| 6x
D|-11-----------------------|
A|---999-9-9-9-9-99---9---9-|
E|--------------------------|

G|-----------------------------------------| 2x
D|-11111111-11-11-11-11-1111-111111-111111-|
A|-9-9-9-9--9--9--9--9--9-9--9-9-9--9-9-9--|
E|-----------------------------------------|

G|-------------------------------------------------| 4x
D|-4444-4-4-4-4-44-444-44--4444-4-4-4-4-44-42------|
A|-------------------------------------------4-42--|
E|-----------------------2-----------------------2-|

G|-------------------------------3-------------------------------------------------------10-10----910111-9---|
D|-----------------------3-336-36--4444-4-4-4-4-44-333-333--------------------------6868--------11--------11-|
A|-----------------4-446-----------------------------------6666-6-6-6-6-66-111-4-6-8-------8--8--------------|
E|-2-2-2-2-2-2-446-------------------------------------------------------------------------------------------|

G|------------------11--11--| 3x
D|-11-----------------------|
A|---999-9-9-9-9-99---9---9-|
E|--------------------------|

G|------------------------------------| 
D|-11111111-11-11-11-11-1111-11-------|
A|-9-9-9-9--9--9--9--9--9-9--9--------|
E|------------------------------------|

G|------------------| 2x
D|---24---24---4-2--|
A|----------------4-|
E|-2----2----2------|

G|------------------| 
D|---35---35---5-3--|
A|----------------5-|
E|-3----3----3------|

G|----------------|
D|----------4--57-|
A|-----4--57------|
E|-4-7------------|

G|------------------------------------------------------------------------------------------6--|
D|-----------------------------------------------------------------------------------------6-6-|
A|-1111-1-1-1-1-11-111-111-2222-2-2-2-2-22-222-222-3333-3-3-3-3-33-333-333-4444-4-4-4-4-44-----|
E|---------------------------------------------------------------------------------------------|

G|---------------------------------| 2x
D|---------------------------------|
A|---------------------------------|
E|-2-2-2-2-2-2-2-2-2-2-2-2-2-2-2-2-|

G|-----------------------------|
D|-----------------------------|
A|-----------------------------|
E|-2-2-2-2-2-2-2-2-2-2-2-2-2-2-|

G|------------------------6--|
D|-------42--4444-4-4-4444-4-|
A|----4\---4-----------------|
E|-7\------------------------|

G|-------------------------------------------------| 4x
D|-4444-4-4-4-4-44-44--44--4444-4-4-4-4-44-42------|
A|-------------------------------------------4-42--|
E|-------------------2---2-----------------------2-|

G|-------------------------------------------------------10-10-------11----|
D|-4444-4-4-4-4-44-333-333--------------------------6868-----------11--11--|
A|-------------------------6666-6-6-6-6-66-111-4-6-8-------8--8--89------9-|
E|-------------------------------------------------------------------------|

G|------------------11--11--| 3x
D|-11-----------------------|
A|---999-9-9-9-9-99---9---9-|
E|--------------------------|

G|-----------------------------------| 
D|-11111111-11-11-11-11-1111-11------|
A|-9-9-9-9--9--9--9--9--9-9--9-------|
E|-----------------------------------|

G|------------------| 2x
D|---24---24---4-2--|
A|----------------4-|
E|-2----2----2------|

G|------------------| 
D|---35---35---5-3--|
A|----------------5-|
E|-3----3----3------|

G|----------------|
D|----------4--57-|
A|-----4--57------|
E|-4-7------------|

G|------------------------------------------------------------------------------------------6--|
D|-----------------------------------------------------------------------------------------6-6-|
A|-1111-1-1-1-1-11-111-111-2222-2-2-2-2-22-222-222-3333-3-3-3-3-33-333-333-4444-4-4-4-4-44-----|
E|---------------------------------------------------------------------------------------------|

G|---------------------------------| 2x
D|---------------------------------|
A|---------------------------------|
E|-2-2-2-2-2-2-2-2-2-2-2-2-2-2-2-2-|

G|-----------------------------|
D|-----------------------------|
A|-----------------------------|
E|-2-2-2-2-2-2-2-2-2-2-2-2-2-2-|

G|-----------------------------------|
D|-------4---4444-4-4-4-4-44-444-444-|
A|----4\--24-------------------------|
E|-7\--------------------------------|

[Breakdown]

G|---------------------------------------------------------------------------------------|
D|-------------------------11111111-11-11-11-11-1111-111111-111111-----------------------|
A|-------------------------9-9-9-9--9--9--9--9--9-9--9-9-9--9-9-9------------------------|
E|-2222-2-2-2-2-22-222-222-----------------------------------------2222-2-2-2-2-22-222---|

G|--------------------------------------------------------------------|
D|--------------------------------------------------------------------|
A|--------------------------------------------------------------------|
E|-2222-2-2-2-2-22-222-222-2222-2-2-2-2-22-222-222-2222-2-2-2-2-222---|

G|--------------------------------------------------| 2x
D|--11111111-11-11-11-11111111-11-11-11-111111-1111-|
A|--9-9-9-9--9--9--9--9-9-9-9--9--9--9--9-9-9--9-9--|
E|--------------------------------------------------|

G|------------------------------| 2x
D|------------------------------|
A|------------------------------|
E|-4444-4-4-4-4444-4-4-4-444-44-|

G|--------------------------------| 3x
D|------------------------64--64--|
A|--------------------------6---6-|
E|-4444-4-4-4-4444-4-4-4----------|

G|------------------------------| 
D|------------------------------|
A|------------------------------|
E|-4444-4-4-4-4444-4-4-4-444-44-|

[Outro]

G|----16-15~-----15-13~-----16-14~-----14-12~-------------------------------------------------|
D|---------------------------------------------8-6-4--4-3-------------------------------------|
A|--------------------------------------------------------------------------------------------|
E|-4------------------------------------------------------------------------------------------|

G|---------------------------------------------------------------------------------------------------------|
D|---------------------------------------------------------------------------------------------------------|
A|---------------------------------------------------------------------------------------------------------|
E|----------------------------------------------------------------------------------------4----------------|

| /  slide up
| \  slide down
| h  hammer-on
| p  pull-off
| ~  vibrato
| +  harmonic
| x  Mute note
===============================================================================

Extra Notes: So, this is pretty straightforward, the only thing to really do
is to get that ####-#-#-#-#-##-###-### figure down and you're golden!

Have fun!

~ Russ
Добавлено: 10.11.2015
Другие материалы по этой песне:

Страница создана 02.03.2012
http://primanota.ru/genesis/watcher-of-the-skies-chords.htm
Привет, Гость.
Предлагаем пройти революционный курс по гитаре.
Подарок от PrimaNota.Ru, забирай!