PrimaNota.ru - самый крупный в мире бесплатный архив песенных текстов, аккордов, табулатур и нот


Genesis - Taking it All Too Hard - текст песни, таба, видео

Регистрация Запомнить меня
Войти через:  Facebook Google Twitter Vk Yandex Mail.ru

Genesis - Taking it All Too Hard - текст песни, таба, видео

Печатать
Просмотров: 106
Title:  Taking It All Too Hard
Artist: Genesis
Album:	Genesis (1983)
Transcribed by David Calcott
Email: 	david_calcott@yahoo.com


Standard tuning. It sounds like he is playing a classical/nylon string guitar for this song. 
The chord shapes seem to be mostly accurate but listen to the song for
variations in the picking style. Playing partial chords sounded best to me. The intro is
played with a guitar but the pre-verse and verse sounds like keyboard. The verse
has a guitar line playing overtop that I didn't tab but if you listen closely shouldn't
be too hard to figure out. The line for Guitar 2 is played only once in the intro over
Guitar 1 playing the normal chords. Corrections are welcome. Enjoy.

Intro/Chorus
 E/B                 B              A               A(2)
|------------------------------------------------------------------------------|
|------9-------------7--------------5---------------10-------------------------|
|---------9-------------8--------------6----------------9------------Repeat 2x-|
|------------9-------9-----9--------7-----7---------11-----11------------------|
|------------------------------------------------------------------------------|
|--7---------------------------------------------------------------------------|

Guitar 2
  E                B            B      A       C#m    G#m    F#m
|------------------------------------------------------------------0--------|
|-----9--10--9-----7------------7------5--------5------4---------2---2------|
|---9--------------8--9--8------8------6--------6------4-------2-------2----|
|-9-----------------------------9------7---------------6-----4-----------4--|
|-----------------------------------------------4---------------------------|
|---------------------------------------------------------------------------|


Pre-verse
   Bm(2)
|-----------------10------------------------10-------------------------|
|-------------12------12-----------------12----12----------------------|
|---------11--------------11----------11----------11------Repeat 2x----|
|------9---------------------------9-----------------9-----------------|
|---9---------------------------9--------------------------------------|
|----------------------------------------------------------------------|

Verse
   Em         Bm                  E/A          D/A
|-----------------------------------------------------------------|
|---8---------7--------------------9------------7-----------------|
|---9---------7---Repeat 3x--------9------------7----Repeat 2x----|
|---9---------9--------------------9------------7-----------------|
|---7------------------------------0------------0-----------------|
|-----------------------------------------------------------------|

  E/A         G                                       G#         Cm
|-----------------------------------------------------4----------------|
|---9--------12--15--13--12---------------------------4----------4-----|
|---9--------12---------------12--14------------------5----------5-----|
|---9--------12------------------------Repeat 2x ----------------5-----|
|---0--------10--------------------------------------------------3-----|
|-----------------------------------------------------4----------------|


Taking It All Too Hard^×Genesis

E/B   B      A       A(2)         E/B    B         A     A(2)
      No not this confused again         No not the same mistakes again.
E/B   B                A       C#m            C#m     G#m     F#m      Bm (2)
      You^Òre taking it all to heart   You^Òre taking it all too hard

Em            Bm   Em           Bm   Em     Bm           E/A
Why can^Òt you see  what^Òs going on?  I know you^Òd never admit
          D/A        E/A    D/A            E/A
You would ever be to blame  Everything^Òs a game to you
G
The old days are gone And they^Òre better left alone
G#                 Cm
I cannot help you, it^Òs much too late

Oh no not this confused again  Oh no not the same mistakes again.
You^Òre taking it all to heart  You^Òre taking it all too hard

There^Òs always a reason why it happened 
You never never did anything wrong, but it
It just seemed to fall apart 
But you^Òre taking it all too hard

Now that it^Òs dark, all of your fears, 
Like shadows creeping around.
You^Òre much too scared to look down 
And it^Òs lonely out on your own

The old days are gone And they^Òre better left alone
But I still miss you I keep it to myself

Oh no not this confused again  Oh no not the same mistakes again
You^Òre taking it all to heart  You^Òre taking it all too hard

E/B	7 7 9 9 9 x
B	x x 9 8 7 x
A	x x 7 6 5 x
A(2)	x x 11 9 10 x
C#m	x 4 6 6 5 4 
G#m	x x 6 4 4 x
F#m	x x 4 2 2 0
Bm	x x 9 7 7 x
Bm(2)	x 9 9 11 12 10
Em	x 7 9 9 8 7 
E/A	x 0 9 9 9 x
D/A	x 0 7 7 7 x
G	x 10 12 12 12 x
G#	4 x x 5 4 4 
Cm	x 3 5 5 4 3







     
Добавлено: 03.10.2013
Другие материалы по этой песне:
  • Аккорды и текст

Страница создана 09.05.2012
http://primanota.ru/genesis/taking-it-all-too-hard-chords.htm
Привет, Гость.
Предлагаем пройти революционный курс по гитаре.
Подарок от PrimaNota.Ru, забирай!