PrimaNota.ru - самый крупный в мире бесплатный архив песенных текстов, аккордов, табулатур и нот


Genesis - Hairless Heart - аккорды и текст, таба, видео

Регистрация Запомнить меня
Войти через:  Facebook Google Twitter Vk Yandex Mail.ru

Genesis - Hairless Heart - аккорды и текст, таба, видео

Печатать
Просмотров: 172
Авторы: Phil Collins, Mike Rutherford, Tony Banks, Peter Gabriel, Steve Hackett

Hairless Heart
Genesis
Intro:
Guitar plays in a kind of fast fingered tremolo and stops just
to enter in the 1st phrase. Played on spanish guitar.

Dm
E||-10------------------|-----------------------|-----------------------|
B||-10------------------|-----------------------|-----------------------|
G||-10------------------|-----------------------|-----------------------|
D||-0-------------------|-----------------------|-----------------------|
A||---------------------|-----------------------|-----------------------|
E||---------------------|-----------------------|-----------------------|

Phrase 1:
Played on spanish guitar also.

Dm C Am Bb
|-10-12-13----8-----------|-------------6-----------|
|-10-------10-8-----------|-10----------6-----------|
|-10----------9-----------|-9--10-9-----7-----------|
|-0-----------10----------|-10-------10-8-----------|
|-------------------------|-0-----------8-----------|
|-------------------------|-------------------------|

Gm Bb C G F Eb Am Dm
|-5--3--------------|-6--8--5--6--3-----|-0--1--------1-----------|
|-3-----3--6--5--8--|-8-----6-----4-----|-1--------1--3-----------|
|-4-----3-----5-----|-7-----5-----3-----|-2-----2-----2-----------|
|-5-----3-----5-----|-5-----3-----1-----|-2-----------0-----------|
|-------------------|-------------------|-0-----------------------|
|-------------------|-------------------|-------------------------|

Phrase 2:
Played in a electric guitar passed through a volume pedal:

Dm C Am Bb Gm Bb C
E||----12-13------------|-----------------------|-------------------|
B||-15------------------|-----------------------|-------------------|
G||----------14-12------|-----------------------|-14-12----------12-|
D||---------------------|-14-15-14----12--------|-------12-15-14----|
A||---------------------|----------15-----------|-------------------|
E||---------------------|-----------------------|-------------------|

G F Eb Am Dm
|---------------------|-----------------------|
|----13---------------|-----------------------|
|-15----14-15-12------|-----------------------|
|---------------------|-14-15-------12--------|
|---------------------|-------12-15-----------|
|---------------------|-----------------------|

Chorus:
The melodic line is played on a synth, but this could be an aprox on
guitar

||: Dm Am Bb F
E||--------------------------|----------------------------|
B||--------------------------|-------------13-------------|
G||----------12-14-----------|-12-14-14-15----------------|
D||-12-14-15-----------------|----------------------------|
A||--------------------------|----------------------------|
E||--------------------------|----------------------------|

Eb Eb Db x2 :||
|----------------------------|----------------------------|
|----13-15------------15--13-|----------------------------|
|-15-------------------------|----------------------------|
|----------------------------|----------------------------|
|----------------------------|----------------------------|
|----------------------------|----------------------------|
Добавлено: 08.09.2013
Другие материалы по этой песне:

Страница создана 18.05.2012
http://primanota.ru/genesis/hairless-heart-chords.htm
Привет, Гость.
Предлагаем пройти революционный курс по гитаре.
Подарок от PrimaNota.Ru, забирай!