PrimaNota.ru - самый крупный в мире бесплатный архив песенных текстов, аккордов, табулатур и нот


Genesis - Can Utility And The Coastliners - аккорды и текст, таба, видео

Регистрация Запомнить меня
Войти через:  Facebook Google Twitter Vk Yandex Mail.ru

Genesis - Can Utility And The Coastliners - аккорды и текст, таба, видео

Печатать
Просмотров: 188
Авторы: Phil Collins, Mike Rutherford, Tony Banks, Peter Gabriel, Steve Hackett

Can Utility And The Coastliners
Genesis
-|12----11----9--------12----14----16-|
-|------------------------------------|
-|---9-----8-----9--------9-----11----|
-|------------------------------------|
-|------------------------------------|
-|------------------------------------|
________________
|1.
||--12-p8-5---2-h3-5---4-7---1-4----------------2-----------------11-14-|
||.--------------------------------2-p0---0-2-----4-2----11-12-14-------|
||--------------------------------------3-------------------------------|
||.---------------------------------------------------------------------|
||----------------------------------------------------------------------|
||----------------------------------------------------------------------|


-|9-9-9-9-10--------12---/14-12-------11-8----|
-|-----------10-9-------------------9------9--|
-|----------------9----9----------8-----------|
-|--------------------------------------------|
-|--------------------------------------------|
-|--------------------------------------------|


-|--------------------------------9--------------4-9-p8-----11-11-11-/13---|
-|9-h11-9-h11-9-h11-9-h11-9-h11-9---5-/9-5---7-4-------------------------9-|
-|------------------------------------------------------8------------------|
-|-------------------------------------------------------------------------|
-|-------------------------------------------------------------------------|
-|-------------------------------------------------------------------------|
____
C F C F C F C F |1. |
||------------------8------------------------------------|
||.-8--8--10--8--8-----6--6--5---------------------------|
||------------------------------5--5--4-/5--5--5--5---5--|
||.------------------------------------------------------|
||-------------------------------------------------------|
||-------------------------------------------------------|
Nothing can my peace destroy...

-|------------------------------------------3-5------------|
-|----------------5-------8-5-6-5--------------------------|
-|------------5-7-----------------5-------5--------------5-|
-|--------5-7---------5-----------------5--------2-h3-h5---|
-|3---5-7-----------7-----------------3--------------------|
-|---------------------------------------------------------|

-|-------------0---0-----|
-|---------3-5---------1-|
-|-2-2-3-5-----------0---|
-|-----------------------|
-|-----------------------|
-|-----------------------|
Добавлено: 29.11.2013
Другие материалы по этой песне:

Страница создана 18.03.2012
http://primanota.ru/genesis/can-utility-and-the-coastliners-chords.htm
Привет, Гость.
Предлагаем пройти революционный курс по гитаре.
Подарок от PrimaNota.Ru, забирай!