PrimaNota.ru - самый крупный в мире бесплатный архив песенных текстов, аккордов, табулатур и нот


Generifus - Pulled Over - аккорды и текст, видео

Регистрация Запомнить меня
Войти через:  Facebook Google Twitter Vk Yandex Mail.ru

Generifus - Pulled Over - аккорды и текст, видео

Печатать
Просмотров: 13
Pulled Over
Generifus
-------------------------------------------------------------------------------
                          Pulled Over - Generifus
-------------------------------------------------------------------------------

Tuning: Standard

Capo 1 (tab in relation to capo)

           A               D 
they wanna know who you are 
C                 A               D    
they really wanna know who you are 
C                 A               D    
they really wanna know who you are 
C                 A
they really wanna know

e|-------------------------------------------------------------------------------|
B|-------------------------------------------------------------------------------|
G|---2--2-0-----------------0h2--2-0-----------------2--2-0-----------------0h2--|
D|----------3-2---0-2-0--------------3-2---0-2-0------------3-2---0-2-0----------|
A|--------------3-------3----------------3-------3--------------3-------3--------|
E|-------------------------------------------------------------------------------|

A               D
trapped in a car 
C                   A           D
they took it just a step too far 
C              A         D
I didn't wanna say at all 
C               A
but now I gotta say it 
           A               D 
they wanna know who you are 
C                 A               D    
they really wanna know who you are 
C                 A               D    
they really wanna know who you are 
C                 A
they really wanna know

e|-------------------------------------------------------------------------------|
B|-------------------------------------------------------------------------------|
G|---2--2-0-----------------0h2--2-0-----------------2--2-0-----------------0h2--|
D|----------3-2---0-2-0--------------3-2---0-2-0------------3-2---0-2-0----------|
A|--------------3-------3----------------3-------3--------------3-------3--------|
E|-------------------------------------------------------------------------------|

A                 D
mocked and ignored 
C                  A                D
ideas that you had when you're bored 
C               A               D
another type of thought occurred 
      C                  A
but I couldn't entertain it 
           A               D 
they wanna know who you are 
C                 A               D    
they really wanna know who you are 
C                 A               D    
they really wanna know who you are 
C                 A
they really wanna know

e|-------------------------------------------------------------------------------|
B|-------------------------------------------------------------------------------|
G|---2--2-0-----------------0h2--2-0-----------------2--2-0-----------------0h2--|
D|----------3-2---0-2-0--------------3-2---0-2-0------------3-2---0-2-0----------|
A|--------------3-------3----------------3-------3--------------3-------3--------|
E|-------------------------------------------------------------------------------|

D    A           C           A
pull forward and towards the curb 
D      A       C     A
pulled over in other words

           A               D 
they wanna know who you are 
C                 A               D    
they really wanna know who you are 
C                 A               D    
they really wanna know who you are 
C                 A
they really wanna know
Добавлено: 14.05.2016
Другие материалы по этой песне:
  • Аккорды и текст

Страница создана 14.05.2016
http://primanota.ru/generifus/pulled-over-chords.htm
Привет, Гость.
Предлагаем пройти революционный курс по гитаре.
Подарок от PrimaNota.Ru, забирай!