PrimaNota.ru - самый крупный в мире бесплатный архив песенных текстов, аккордов, табулатур и нот


Generationals - Ten-twenty-ten - таба, видео

Регистрация Запомнить меня
Войти через:  Facebook Google Twitter Vk Yandex Mail.ru

Generationals - Ten-twenty-ten - таба, видео

Печатать
Просмотров: 103
Уроки эстрадного вокала в Санкт-Петербурге
Авторы музыки: Generationals

A great song by Generationals, but unfortunately I never found a single tab for it, so I 
decided to write one myself, and I think this is as accurate as it gets.

Only coding needed: .... = PM

Intro:

e----------------------------------------------------------------------------|
B----------------------------------------------------------------------------|
G------------------------------------9-6---------6---------------------------|
D---77-7-7-7-7-7-7-766-7-6-6-7-7-7-7-----9-9-7-79-9766-7-6-6-7-7-7-7---------|
A---------------0-0-------------0-0-0---------------------------0-0----------|
E----------------------------------------------------------------------------|


e----------------------------------------------------------------------------|
B----------------------------------------------------------------------------|
G------------------------------------6---------6-6---------------------------|
D---77-7-6-6-7-7-7-766-7-6-6-7-7-7-7---9-9-9-7--9-9766-7-6-6-7-7-7-7---------|
A---------------0-0-------------0-0-0---------------------------0-0----------|
E----------------------------------------------------------------------------|

- Verse 1 -

A.....................................D.............
When I need it so bad, why do you not come to defend
A..................................................D..............
Is there any way to tell me that you're gonna be a terrible friend
...................A
You remind me of a distant constellation
            D
The way you color it up, but don't let me touch
                 A
So now you wanna know is that important
                   D
Well maybe now and it just depends, it just depends


Riff:

e----------------------------------------------------------------------------|
B----------------------------------------------------------------------------|
G----------------------------------------------------------------------------|
D---77-7-7-7-7-7-7-766-7-6-6-7-7-7-7-9-7-9-9-7-7-7-766-7-6-6-7-7-7-7---------|
A---------------0-0-------------0-0-0-----------0-0-------------0-0-0--------|
E----------------------------------------------------------------------------|


e----------------------------------------------------------------------------|
B----------------------------------------------------------------------------|
G---6-------------------------------------------6----------------------------|
D-----9-9-9-7-7-7-766-7-6-6-7-7-7-7-------6-7-79-9766-7--6-6-7-7-7-7---------|
A--------------0-0-------------0-0-00-4-7-----------------------0-0-0--------|
E----------------------------------------------------------------------------|

- Verse 2 -

A.............................................D................
And when you come back uptown remember not to look for me there
A....................................................D.................
I give you one more chance to make it better but you don't seem to care
..................A
You pretend to be accosted by tradition
            D
And now you cover it up, tell me you don't
                   A
Well now you wanna know is nothing sacred
                  D
And I don't wanna have to compare, they don't compare


Bridge:

F#m  Dbm  E

e----------------------------------------------------------------------------|
B----------------------------------------------------------------------------|
G----------------------------------------------------------------------------|
D---77-7-7-7-7-7-7-766-7-6-6-7-7-7-7-9-7-9-9-7-7-7-766-7-6-6-7-7-7-7---------|
A---------------0-0-------------0-0-0-----------0-0-------------0-0-0--------|
E----------------------------------------------------------------------------|


B E A D
B E

e--------------------|
B--------------------|
G--------------------|
D---77-7-7-7-7-7-7-7-|
A---------------0-0--|


e----------------------------------------------------------------------------|
B----------------------------------------------------------------------------|
G------------------------------------9-6---------6---------------------------|
D---77-7-7-7-7-7-7-766-7-6-6-7-7-7-7-----9-9-7-79-9766-7-6-6-7-7-7-7---------|
A---------------0-0-------------0-0-0---------------------------0-0-0--------|
E----------------------------------------------------------------------------|



e----------------------------------------------------------------------------|
B----------------------------------------------------------------------------|
G------------------------------------6-----------6---------------------------|
D----9-7-9-9-7-7-7-766-7-6-6-7-7-7-7---9-9-9-7-79-9766-7-6-6-7-7-7-7---------|
A---------------0-0-------------0-0-0---------------------------0-0----------|
E----------------------------------------------------------------------------|


- Verse 3 -

A.......................D.......................
When I see your friends they say it's in my head
A......................................D................
All my friends seem to think you might leave me for dead
.........................A
I don't remember if it's coastal complication
         D
It keeps leaving it out and color it up
                 A
And if you wanna know I won't confront you
                    D
With all the stupid things that you said


Outro:

e----------------------------------------------------------------------------|
B----------------------------------------------------------------------------|
G----------------------------------------------------------------------------|
D---77-7-7-7-7-7-7-766-7-6-6-7-7-7-7-9-7-9-9-7-7-7-766-7-6-6-7-7-7-7---------|
A---------------0-0-------------0-0-0-----------0-0-------------0-0-0--------|
E----------------------------------------------------------------------------|



e----------------------------------------------------------------------------------|
B----------------------------------------------------------------------------------|
G---6-----------6------------------------------------------------------------------|
D-----9-9-9-7-79-9766-7-6-6-7-7-7-77-7-6-6-7-7-7-7-9-7-9-9-7-7-7-766-7-6-6-7-7-7-7-|
A------------------------------0-0------------0-0-0-----------0-0-------------0-0--|
E----------------------------------------------------------------------------------|



e----------------------------------------------------------------------------|
B----------------------------------------------------------------------------|
G----------------------------------------------------------------------------|
D---66-7-6-6-7-7-7-77--------------------------------------------------------|
A---------------0-0----------------------------------------------------------|
E----------------------------------------------------------------------------|
Добавлено: 14.11.2013
Другие материалы по этой песне:
  • Аккорды и текст

Страница создана 14.11.2013
http://primanota.ru/generationals/ten-twenty-ten-chords.htm
Привет, Гость.
Предлагаем пройти революционный курс по гитаре.
Подарок от PrimaNota.Ru, забирай!