PrimaNota.ru - самый крупный в мире бесплатный архив песенных текстов, аккордов, табулатур и нот


General Elektriks - Raid The Radio - таба, видео

Регистрация Запомнить меня
Войти через:  Facebook Google Twitter Vk Yandex Mail.ru

General Elektriks - Raid The Radio - таба, видео

Печатать
Просмотров: 83
-------------------------------------------------------------------------------
                      RAID THE RADIO - General Elektriks
-------------------------------------------------------------------------------
Tabbed by: Seismatters
Tuning: Standard E A D G B E
YouTube Reference: https://www.youtube.com/watch?v=pe4rn241d2Y

Main Riff and Chorus

Chords: E       G#      C#m      A        E       G#      C#m 
     e|---------------------------------|------------------------------------------|
     B|---------------------------------|------------------------------------------|
     G|---------------------------------|------------------------------------------|
     D|-----9------ 10------11------10--|----9-------10--------11------------------|
     A|---------------------------------|------------------------------------------|
     E|-7-7-7-7-8-8-8-8-9-9-9-9-8-8-8-8-|-7-7-7-7-8-8-8-8-9-9-9-9-9----------------|



Verse Riff

Chords: G#                                  C#m
     e|---------------------------------------------------------------------------|
     B|-------------------------------------2-2-2-2-2-2-------2-2-2-2-2-2---------|
     G|-1-1-1-1-1-1-2/4\1-1-1-1-1-1-1-2/4\1-------------2/4\1-------------2/4\1---|
     D|---------------------------------------------------------------------------|
     A|---------------------------------------------------------------------------|
     E|---------------------------------------------------------------------------|
  
      
      / = Slide up
      \ = Slide down
Добавлено: 05.06.2016
Вам также может быть интересно:
Другие материалы по этой песне:
  • Аккорды и текст

Страница создана 05.06.2016
http://primanota.ru/general-elektriks/raid-radio-chords.htm
Привет, Гость.
Предлагаем пройти революционный курс по гитаре.
Подарок от PrimaNota.Ru, забирай!