PrimaNota.ru - самый крупный в мире бесплатный архив песенных текстов, аккордов, табулатур и нот


Gene Autry - Rudolph The Red Nosed Reindeer - таба, видео

Регистрация Запомнить меня
Войти через:  Facebook Google Twitter Vk Yandex Mail.ru

Gene Autry - Rudolph The Red Nosed Reindeer - таба, видео

Печатать
Просмотров: 82
E-----4-6-4----9-6-4--------------4-6-4-6-4-9-8------------------|
B-------------4--------------------------------------------------|
G----------------------------------------------------------------|
D----------------------------------------------------------------|
A----------------------------------------------------------------|
E----------------------------------------------------------------|

E-----------------8-6-4--------------4-6-4-6-4-6------------------|
B-----7-9-7-4-----------------------------------------6-----------|
G-----------------------------------------------------------------|
D-----------------------------------------------------------------|
A-----------------------------------------------------------------|
E-----------------------------------------------------------------|

E-----4-6-4----9-6-4--------------4-6-4-6-4-9-8------------------|
B-------------4--------------------------------------------------|
G----------------------------------------------------------------|
D----------------------------------------------------------------|
A----------------------------------------------------------------|
E----------------------------------------------------------------|

E-----------------8-6-4--------------4-6-4-6-4-11-9----------------|
B-----7-9-7-4------------------------------------------------------|
G------------------------------------------------------------------|
D------------------------------------------------------------------|
A------------------------------------------------------------------|
E------------------------------------------------------------------|

E------6-6-9-6-4---4-----------------------------------------------|
B-------------------6----------7-11-9-7-6--------------------------|
G------------------------------------------------------------------|
D------------------------------------------------------------------|
A------------------------------------------------------------------|
E------------------------------------------------------------------|

E----------------------------------------------------------------|
B-------4-6-9-11-13-13-13-----14-14-13-11-9-7-6------------------|
G----------------------------------------------------------------|
D----------------------------------------------------------------|
A----------------------------------------------------------------|
E----------------------------------------------------------------|

E-----4-6-4----9-6-4--------------4-6-4-6-4-9-8------------------|
B-------------4--------------------------------------------------|
G----------------------------------------------------------------|
D----------------------------------------------------------------|
A----------------------------------------------------------------|
E----------------------------------------------------------------|

E-----------------8-6-4--------------4-6-4-6-4-11-9---------------|
B-----7-9-7-4-----------------------------------------------------|
G-----------------------------------------------------------------|
D-----------------------------------------------------------------|
A-----------------------------------------------------------------|
E-----------------------------------------------------------------|
Добавлено: 04.03.2016
Другие материалы по этой песне:
  • Аккорды и текст

Страница создана 04.03.2016
http://primanota.ru/gene-autry/rudolph-red-nosed-reindeer-chords.htm
Привет, Гость.
Предлагаем пройти революционный курс по гитаре.
Подарок от PrimaNota.Ru, забирай!